Song name
# A B C D E F G H I J K L M N O P Q R S T U V W X Y Z

The Follow Through - Memories tab

Capo on 1st fret.

VERSES:
|---3---|--2/3--|---3---|
|---3---|---3---|---3---|
|---0---|---2---|---0---|
|---2---|---0---|---2---|
|---3---|---x---|-------|
|---x---|---x---|-------|


|---3---|--2/3--|---3---|
|---3---|---3---|--1\0--|
|---0---|---2---|---0---|
|---2---|---0---|---0---|
|---3---|---x---|---2---|
|---x---|---x---|---3---|


this is for the plucking thing.

when I first met you my baby...
|------------------3---------2/3---------3-|
|------------------3---------3-----------3-|
|---------------0-------2-------------0----|
|-----------2---------0------------2-------|
|-------3----------------------------------|
|------------------------------------------|


|-------------------------------------------3-|
|-----------------------------3-------------3-|
|---------------0----------2-----2-------0----|
|-----------2------2----0-------------2-------|
|-------3-------------------------------------|
|---------------------------------------------|


we gotta drive and movie to see...
|--------------(3)-------2/3----------3-3--|
|--------------(3)-------3------------1-0--|
|---------------0-----2--------------------|
|-----------2-------0----------------------|
|-------3--------------------------2-------|
|-------------------------------3----------|

chords will be the same for the strumming part.

CHORUS:

Ccadd9-Em thing(the 2nd chord in the VERSE part)-Ccadd9--|G
Ccadd9-Em thing-Ccadd9-----------------------------------|D-G

that's all.enjoy.:D.hmm.just listen to the song and you'll get the right plucking and strumming.

-by amiappreciated.
Tap to rate this tab
 
# A B C D E F G H I J K L M N O P Q R S T U V W X Y Z