Song name
# A B C D E F G H I J K L M N O P Q R S T U V W X Y Z

The Follow - Christian Girl tab

Intro (Guitar):
e|-------------------------------------------|
B|-------------------------------------------|
G|-------------------------------------------|
D|-------------------------------------------|
A|-------------------------------------------|
E|-0---0-3-3-0---0-3-3-5---5----8-7-0---0-3-3|
(play three times)

Verse (Bass):
G|-------------------------------------------|
D|-------------------------------------------|
A|-------------------------------------------|
E|-0-0-0-0-0-0-0-0-0-0-0-0-0-0-0-0-0-0-0-0-0-|
(keep playing throughout entire verse)

I'm in love, with christian girl, and I gotta change my heathen ways.
I'm in love, with christian girl, and I gotta change my heathen ways, now.

Verse (Guitar):
e|--------------------------------------------------|
B|--------------------------------------------------|
G|--------------------------------------------------|
D|--------------------------------------------------|
A|--------------------------------------------------|
E|-3-3-3-2-0-----3-3-3-2--3--5-3-2-3-2----3-3-3-2-0-|

Yeeahhh
I'm in love, with christian girl, and I gotta change my heathen ways.
I'm in love, with christian girl, and I gotta change my heathen ways, now.

Chorus:
Heathen, heathen, you're not heathen

Chorus (Guitar):
e|--------------------------------------------------|
B|--------------------------------------------------|
G|--------------------------------------------------|
D|--------------------------------------------------|
A|--------------------------------------------------|
E|-0-0---0-0---0-0--0-0-----------------------------|




That's all I can be bothered to type out ;) Hope you like!

Tap to rate this tab
# A B C D E F G H I J K L M N O P Q R S T U V W X Y Z