Guitaretab - guitar tabs
Song name
# A B C D E F G H I J K L M N O P Q R S T U V W X Y Z

The Follow - Happy Now tab

This is my very first tab Iíve fully figured out and written (mostly) myself, sorry if 
a bit messy


Bass Intro (as with the rest of the tab, just listen to get the rhythm, its pretty simple)

G|---------------------------------------------------------------------------|
D|---------------------------------------------------------------------------|
A|----3--------------------0------------------7--------------5---------------|
E|---------------------------------------------------------------------------|

Guitar Riff section (this same riff is played several times throughout the song, just
to it to figure out where)

E|--------------------------------------------------------|
B|--------------------------------------------------------|
G|--------------------------------------------------------|
D|---5----5-----5-----5--------5-----5----------5-------5-|
A|33----3----00-----0-----7--7-----7-------5--5-------5---|
E|--------------------------------------------------------|

Chord section (is the same every time it is present in the track, except for the part
the end where there is the broken muted part after the A0, A0, D5, A0, D5, part)

[there are two ways to play this, just do whatís most comfortable for you, ill write
both out for you

First Way:

E|--------------------------------------------------------|
B|--------------------------------------------------------|
G|----5----2----9----7------------------------------------|
D|----5----2----9----7------------------------------------|
A|----3----0----7----5------------------------------------|
E|--------------------------------------------------------|

Second Way:


E|----------------------------------------------------------|
B|----------------------------------------------------------|
G|----5----------9----7-------------------------------------|
D|----5----7-----9----7-------------------------------------|
A|----3----7-----7----5-------------------------------------|
E|---------5------------------------------------------------|


Now for the solo part (tabbed by the wonderful Lynet)

[ Tab from: http://www.guitaretab.com/t/the-follow/163636.html ]
E|--------------------------------------------------------|
B|--------------------------------------------------------|
G|--------------------------------------------------------|
D|------------------------2-----------0-------------------|
A|---3---------0------------------------------------------|
E|--------------------------------------------------------|


E|--------------------------------------------------------|
B|--------------------------------------------------------|
G|------------------2--0----------------------------------|
D|---5--3--2--3--5------------5--3--2--3--0--2--3--5------|
A|--------------------------------------------------------|
E|--------------------------------------------------------|

E|--------------------------------------------------------|
B|--------------------------------------------------------|
G|--------------------------------------------------------|
D|------------------------2-----------0-------------------|
A|---3---------0------------------------------------------|
E|--------------------------------------------------------|

E|--------------------------------------------------------|
B|--------------------------------------------------------|
G|------------------2--0----------------------------------|
D|---5--3--2--3--5------------5--3--2--3--0--2--3--5------|
A|--------------------------------------------------------|
E|--------------------------------------------------------|

E|--------------------------------------------------------|
B|--------------------------------------------------------|
G|--------------------------------------------------------|
D|------------------------2-----------0-------------------|
A|---3---------0--------------------------------------3-4-|
E|--------------------------------------------------------|


Thatís pretty much it (apart from the light guitar plucking over the bass, which I
got down yet), this tab isnít written out fully, its just each section written out, you can
listen and figure out where they go. I am pretty sure that bass line is the same 
although Iím not a bass play, if you have any corrections, please donít hesitate to
me: andrew-rutherford@hotmail.com

This is the first tab for the follow on ultimate guitar, as such i was asked to provide
official site, and here it is:

http://www.thefollow.net/

or the myspace: http://www.myspace.com/thefollow
Related for Happy Now tab