Song name
# A B C D E F G H I J K L M N O P Q R S T U V W X Y Z

The Forces Of Evil - Mistake tab

The Forces of Evil - Mistake
Tabbed by Twisted4000

This is my first tab, I tabbed the horns that play throughout Mistake by The 
Forces of Evil (amazing song and amazing band, by the way).

Intro (also plays in between the verses):

1|------------------------------------------------------|
2|-15-14-15-12-14-15--12-15-14-10-10-10-12-14--17-15-14-|
3|------------------------------------------------------| ____
4|------------------------------------------------------|     |
5|------------------------------------------------------|     |
6|------------------------------------------------------|     |
                                                              | - x2
1|------------------------------------------------------|     |
2|-15-14-15-12-14-15--12-15-14-10-10-7-10--14-12-11-----|     |
3|------------------------------------------------------| ____|
4|------------------------------------------------------|
5|------------------------------------------------------|
6|------------------------------------------------------|

Bridge:

1|------------------------------------------------------|
2|-15-14-15-12-14-15---14--17--15-----------------------|
3|------------------------------------------------------| ____
4|------------------------------------------------------|     |
5|------------------------------------------------------|     |
6|------------------------------------------------------|     |
                                                              | - x2
1|------------------------------------------------------|     |
2|-15-14-15-12-14-15-14--12-8-10-12-12-10-12------------|     |
3|------------------------------------------------------| ____|
4|------------------------------------------------------|
5|------------------------------------------------------|
6|------------------------------------------------------|

1|------------------------------------------------------|
2|-8-10-12-12-10-12-------------------------------------|
3|------------------------------------------------------| - x2
4|------------------------------------------------------|
5|------------------------------------------------------|
6|------------------------------------------------------|

1|------------------------------------------------------|
2|-8-10-12-12-10----------------------------------------|
3|------------------------------------------------------|
4|------------------------------------------------------|
5|------------------------------------------------------|
6|------------------------------------------------------|
Tap to rate this tab
# A B C D E F G H I J K L M N O P Q R S T U V W X Y Z