Song name
# A B C D E F G H I J K L M N O P Q R S T U V W X Y Z

The Forces Of Evil - Angry Anthem tab

    Intro and Verses
 ---------------------------------------------------|
 ---------------------------------------------------|
 ---------------------------------------------------|
 ---------------------------------------------------|
 -0-2-4-5-4-2-0--0-2-0------------------------------|
 ----------------------3-3--------------------------|
ska part (rhythm guitarist)
E --5--4--2--5----------|
B --5--5--3--7----------|
G --6--6--4--7----------|
D ----------------------|
A ----------------------|
E ----------------------|

Pre Chorus (Is it immature for me to say?....)
E ----------------------|
B ----------------------|
G -----------7-7-9-9-9--|
D ---9-------7-7-9-9-9--|
A ---9-hold--5-5-7-7-7--|
E ---7------------------|

Chorus (Fuck all you...) (power chords)
E ---------------------------------------------------------------------|
B ---------------------------------------------------------------------|
G -----------9-9-9-9-----------7-7-7-7-----------9-9-9-9--7-7--6--4----|
D --7-7-7-7--9-9-9-9--7-7-7-7--7-7-7-7--7-7-7-7--9-9-9-9--7-7--6--4--7-|
A --7-7-7-7--7-7-7-7--7-7-7-7--5-5-5-5--7-7-7-7--7-7-7-7--5-5--4--2--7-|
E --5-5-5-5-----------5-5-5-5-----------5-5-5-5----------------------5-|

Solo (solo trombone)
E ---5\3/5-----|
B ---5\3/6-----|
G ---6\4/6-----|
D -------------|
A -------------|
E -------------|

Break (And there's just one more thing.......)
E ---------------------------------------------------------------------|
B ---------------------------------------------------------------------|
G -----------9-9-9-9-----------7-7-7-7-----------9-9-9-9--7-7--6--4----|
D --7-7-7-7--9-9-9-9--7-7-7-7--7-7-7-7--7-7-7-7--9-9-9-9--7-7--6--4--7-|
A --7-7-7-7--7-7-7-7--7-7-7-7--5-5-5-5--7-7-7-7--7-7-7-7--5-5--4--2--7-|
E --5-5-5-5-----------5-5-5-5-----------5-5-5-5----------------------5-|
   pm...................................................

Ending
E ------------------------------------|
B ------------------------------------|
G ------------------------------------|
D ------------------------------------|
A ---------4-5-4----------4--3-3------|
E ---5-5-7-------7-5--5-7----3-3------|

this isn't my tab its is tabed Tabbed By: Nate Nepsky (theamazingzoob@yahoo.com)  i 
found it and want to spread the ska revival(if you belive it died) delete it if you must but 
a great tab very easy and fun to play and sounds great
Tap to rate this tab
 
# A B C D E F G H I J K L M N O P Q R S T U V W X Y Z