Song name
# A B C D E F G H I J K L M N O P Q R S T U V W X Y Z

The Forces Of Evil - Vague Love Song tab

Forces Of Evil - Vague Love Song
Tabbed by: Nate Nepsky (theamazingzoob@yahoo.com) (not me)

Intro
E --7-77777---8--8--8--8--8--8-------------------------------------|
B --8-88888--10-10-10-10-10-10--x2-then----------------------------|
G --9-99999--10-10-10-10-10-10-----------9-9-9-9-9--10-10-10-10----|
D ---------------------------------------9-9-9-9-9--10-10-10-10----|
A ---------------------------------------7-7-7-7-7--8---8--8--8----|
E -----------------------------------------------------------------|


Pre verse
E --x3x3x3x3--------x5x5-----------------------------|
B --x3x3x3x3--x5x5--x7x7-----------------------------|
G --x4x4x4x4--x5x5--x7x7--------repeat-last----------|
D ------------x5x5---------------part-of-intro-------|
A ---------------------------------------------------|
E ---------------------------------------------------|

Verse
E --x3x3x3x3--------x5x5----------------------------|
B --x3x3x3x3--x5x5--x7x7----------------------------|
G --x4x4x4x4--x5x5--x7x7----------------------------|
D ------------x5x5----------------------------------|
A --------------------------------------------------|
E --------------------------------------------------|

Chorus
E -----------------------------------------------------|
B -----------------------------------------------------|
G --5-5-5--------7-7-7--------5-5-5--------------------|
D --5-5-5-5-rest-7-7-7-5-rest-5-5-5-5\3-3-3------------|
A --3-3-3-5-rest-5-5-5-5-rest-3-3-3-5\3-3-3-into-verse-|
E --------3-rest-------3-rest-------3\1-1-1------------|

Bridge (palm mute)
E --------------------------------------|
B --------------------------------------|
G --------------------------------------|
D -3------5-----------------------------|
A -3-x12--5-x12---whole-thing-x4--------|
E -1------3-----------------------------|

Solo
E
----------------------------------------------13-12-13-12-13-12-13-12--15~~----
B
-------------------------------6-5-6-5-6-5-6-----------------------------------
G
-------------------------------------------------------------------------------
D
-----------------3-2-3-2-3-2-3-------------------------------------------------
A
-------------------------------------------------------------------------------
E
1-0-1-0-1-0-1------------------------------------------------------------------
Went so fast I can't believe it
One day here the next they leavin'
I just never thought this could happen to me
Well was there somethin' I did wrong?

I know you're gone
You've been away so long
I know you're gone and you'll
Never never never never never never come back on

Dad told me to forget it
things get lost so just live with it
I just think it's gonna get worse everyday
Well when you need them, things go away

I know you're gone
You been away so long
I know you're gone and you'll
Never never never never never never come back on

I know you're gone
You were so wrong
You were so wrong
And now ur gone

Went so fast I can't believe it
One day here the next they leavin'
I just never thought this would happen to me
Well was there somethin' I did wrong?

I know you're gone
You've been away so long
I know you're gone and you'll
Never never never never never never come back
I know you're gone
You've been away so long
I know you're gone and you'll
Never never never never never never come back Never never come back
Never never come back on
Tap to rate this tab
# A B C D E F G H I J K L M N O P Q R S T U V W X Y Z