Song name
# A B C D E F G H I J K L M N O P Q R S T U V W X Y Z

The Forecast - Yourre My Needle tab

Ok this is my first tab so if it's not right I'm sorry
feel free to tweak it if u want and let me know what I gotta change



                                        X2
|---0-----------------------------------|
|-------3---0---------------------------|
|---------------2---2h4p2p0-------------|
|---------------------------------------|
|---------------------------------------|
|---------------------------------------|


|---------------------------------------|
|---------------------------------------|
|---------------------------------------|    Repeat
|---2---2--/5---2p0---------------------|      as
|---------------------2---2--/5---------|    needed
|---------------------------------------|
                 ^             
At this point I'm not sure if it's that or just an open D.


Well there it is. If you figure out the other part let me know.



rp_rock15@yahoo.com

Tap to rate this tab
# A B C D E F G H I J K L M N O P Q R S T U V W X Y Z