Song name
# A B C D E F G H I J K L M N O P Q R S T U V W X Y Z

The Forecast - Late Night Conversations tab

Tuning: Standard eadgbe

Intro/ verse pt 1
Guitar I
e---------------------------|
b---------------------------|
g-9-9~----------------------|
d-9-9~-2x-7-7~--------------|    2x
a-7-7~----7-7~-2x-----------|
e---------5-5~--------------|


Verse pt 2
Guitar I
e------------------------|
b------------------------|
g-9----------------------|
d-9-16x---7--------------|
a-7-------7-16x----------|
e---------5--------------|

Guitar II

e---------------------------|
b---------------------------|
g---------------------------|
d-----99---11b-99-----------|
a-77------------------------|
e---------------------------|    not sure about this if you know feel free to correct

chorus

e--------------------------------|
b--------------------------------|
g----------------9---------------|
d-4------7-------9-16x--9--------|
a-4-16x--7-16x---7------9-16x----|
e-2------5--------------7--------|

thats it really... any corrections feel free to make....

great band... be looking out for their new album to be coming out in febuary
Tap to rate this tab
# A B C D E F G H I J K L M N O P Q R S T U V W X Y Z