Song name
# A B C D E F G H I J K L M N O P Q R S T U V W X Y Z

The Forecast - Some Things Never Change tab

Modified from "unregistered's" transription - it was nearly perfect.  Thanks!

Chords:
*note - the D listed throughout the tab is the Dsus4 listed below.

    G   C Dsus4 Em7 A2

e---3---3---3---3---0--|
b---3---3---3---3---2--|
g---0---0---2---0---2--|
d---0---2---0---2---0--|
a---2---3---X---2---0--|
E---3---x---X---0---0--|

Verse 1: "It's inside of three weeks..."

G       C

Bridge: "I waited for your call..."

     D               Em7            C

e---3------------3---3--------------3----------------|
b---3---------3------3----------3---3----------------|
g---2------2---------0--------0-----0------0------0--|
d---0---0------------2------2-------2----2------2----|
a--------------------2---2----------3--3------3------|
E--------------------0-------------------------------|

Verse 2: "Sleep's been coming hard for me..."

G       C

Chorus: "A slow dance, a last chance..."

G    C    A2    C
Tap to rate this tab
 
# A B C D E F G H I J K L M N O P Q R S T U V W X Y Z