Song name
# A B C D E F G H I J K L M N O P Q R S T U V W X Y Z

The Forecast - Broken Bottles Acoustic tab

I Learned this by ear and it's on point. This is one of my favorite songs.



Intro:
Guitar 2
e|---------------------------------------------------------------|
B|---------------------------------------------------------------|
G|---------------8--------------------------8--------------------|
D|--------6---------6------6---------6--------6-----6------------|
A|-7--7------7---------7------7--7-----7--------7----------------|
E|---------------------------------------------------------------|

e|----------------------------------------------------------------|
B|----------------------------------------------------------------|
G|---------------8--------------------------8---------------------|
D|--------6---------6------6---------6--------6------6------------|
A|-0--0------0---------0------0--0-----0---------0----------------|
E|----------------------------------------------------------------|

e|---------------------------------------------------------------|
B|---------------------------------------------------------------|
G|---------------8--------------------------8--------------------|
D|--------6---------6------6---------6--------6-----6------------|
A|-7--7------7---------7------7--7-----7--------7----------------|
E|---------------------------------------------------------------|

e|----------------------------------------------------------------|
B|----------------------------------------------------------------|
G|---------------8--------------------------8---------------------|
D|--------6---------6------6---------6--------6------6------------|
A|-0--0------0---------0------0--0-----0---------0----------------|
E|----------------------------------------------------------------|

Verse:
Guitar 1 (Guitar 2 Keep playing)
e|----------------------------------------------------------------|
B|----------------------------------------------------------------|
G|--------9-----9s/11--9-------9-------9-------9s/11--9-----------|
D|-----------9-------------11------11------11-------------11------|
A|-7--7-----------------------------------------------------------|
E|----------------------------------------------------------------|

e|----------------------------------------------------------------|
B|----------------------------------------------------------------|
G|----------------------------------------------------------------|
D|--------9--9s/11--9---------------------------------------------|
A|-7--7-----------------11-11-9-9-7-7-----------------------------|
E|----------------------------------------------------------------|

Chorus:
e|----------------------------------------------------------------|
B|----------------------------------------------------------------|
G|----------------------------9s/11\s9----------------------------|
D|--------9s/11\s9------------------------------------------------|
A|-7--7---------------7--7----------------------------------------|
E|----------------------------------------------------------------|

e|----------------------------------------------------------------|
B|----------------------------------------------------------------|
G|----------------------------9s/119------------------------------|
D|--------9s/11-9-------------------------------------------------|
A|-7--7---------------7--7----------------------------------------|
E|----------------------------------------------------------------|

powerchord(learn timing from song)
e|----------------------------------------------------------------|
B|----------------------------------------------------------------|
G|--9-9-9-9-9-9-9-9-9-9-9-9-9-9-9---------------------------------|
D|--9-9-9-9-9-9-9-9-9-9-9-9-9-9-9---------------------------------|
A|-7-7-7-7-7-7-7-7-7-7-7-7-7-7-7----------------------------------|
E|----------------------------------------------------------------|

e|----------------------------------------------------------------|
B|----------------------------------------------------------------|
G|----------------------------------------------------------------|
D|--7-7-7-7-7-7-7-7-7-7-7-7-7-7-7-7-7-----------------------------|
A|--7-7-7-7-7-7-7-7-7-7-7-7-7-7-7-7-7-----------------------------|
E|-5-5-5-5-5-5-5-5-5-5-5-5-5-5-5-5-5------------------------------|

e|----------------------------------------------------------------|
B|----------------------------------------------------------------|
G|--9-9-9-9-9-9-9-9-9-9-9-9-9-9-9---------------------------------|
D|--9-9-9-9-9-9-9-9-9-9-9-9-9-9-9---------------------------------|
A|-7-7-7-7-7-7-7-7-7-7-7-7-7-7-7----------------------------------|
E|----------------------------------------------------------------|

e|----------------------------------------------------------------|
B|----------------------------------------------------------------|
G|----------------------------------------------------------------|
D|--7-7-7-7-7-7-7-7-7-7-7-7-7-7-7-7-7-----------------------------|
A|--7-7-7-7-7-7-7-7-7-7-7-7-7-7-7-7-7-----------------------------|
E|-5-5-5-5-5-5-5-5-5-5-5-5-5-5-5-5-5------------------------------|

e|----------------------------------------------------------------|
B|----------------------------------------------------------------|
G|----------------------------------------------------------------|
D|--9-9-9-9-9-9-9-9-9-9-9-9-9-9-9-9-9-9---------------------------|
A|--9-9-9-9-9-9-9-9-9-9-9-9-9-9-9-9-9-9---------------------------|
E|-7-7-7-7-7-7-7-7-7-7-7-7-7-7-7-7-7-7----------------------------|

e|----------------------------------------------------------------|
B|----------------------------------------------------------------|
G|----------------------------------------------------------------|
D|--7-7-7-7-7-7-7-7-7-7-7-7-7-7-7-7-7-----------------------------|
A|--7-7-7-7-7-7-7-7-7-7-7-7-7-7-7-7-7-----------------------------|
E|-5-5-5-5-5-5-5-5-5-5-5-5-5-5-5-5-5------------------------------|

e|----------------------------------------------------------------|
B|----------------------------------------------------------------|
G|----------------------------------------------------------------|
D|--9-------------------------------------------------------------|
A|--9-------------------------------------------------------------|
E|-7--------------------------------------------------------------|
Tap to rate this tab
# A B C D E F G H I J K L M N O P Q R S T U V W X Y Z