Song name
# A B C D E F G H I J K L M N O P Q R S T U V W X Y Z

The Forecast - These Lights tab

----------------------------------------------------------------------------
			These Lights - The Forecast 
----------------------------------------------------------------------------
Tabbed by: Blake Tyson
Email: StormWrestling09@aim.com

Tuning: Standard

   Intro/Verse 1:

e|------|--------------3~-----2~~--|
B|------|--------------3~-----3~~--|
G|--0~--|-------0------0~-----2~~--|
D|--2~--|-------2~-----0~---0-0~~--|  Two Times with echo or just repeat
A|--2~--|-------2~-----2~----------|        the first two chords 4 times
E|--0~--|-----0-0~---3-3~----------|           and the third one 8 times


   Chorus(x2):

e|-----------------------------------------------------------------|
B|-----------------------------------------------------------------|
G|-----------------------------------------------------------------|
D|--10--1010--101010---10--1010--101010---7--77--7777--7--7--777---|
A|--10--1010--101010---10--1010--101010---7--77--7777--7--7--777---|
E|--8---8-8---8-8-8----7---7-7---7-7-7----5--55--5555--5--5--555---|

e|-------------------------------------------------------------------------|
B|-------------------------------------------------------------------------|
G|-------------------------------------------------------------------------|
D|--10--1010--101010--10--1010--101010--12--1212--12121212--12--12--121212-|
A|--10--1010--101010--10--1010--101010--12--1212--12121212--12--12--121212-|
E|---8---8-8---8-8-8---7---7-7---7-7-7--10--1010--10101010--10--10--101010-|

   Verse 2:

e|-----------3~------2~-----(2)~--|
B|-----------3~------3~-----(3)~--|
G|----0~-----0-------2~-----(2)~--|
D|----2~-----0~----0-0~-(0)-(0)~--|  x4 (Echo only on 3rd and 4th time)
A|----2~-----2--------------------|
E|--0-0~---3-3~-------------------|

   Chorus x4:

e|-----------------------------------------------------------------|
B|-----------------------------------------------------------------|
G|-----------------------------------------------------------------|
D|--10--1010--101010---10--1010--101010---7--77--7777--7--7--777---|
A|--10--1010--101010---10--1010--101010---7--77--7777--7--7--777---|
E|--8---8-8---8-8-8----7---7-7---7-7-7----5--55--5555--5--5--555---|
                                                                      
e|-------------------------------------------------------------------------|
B|-------------------------------------------------------------------------|
G|-------------------------------------------------------------------------|
D|--10--1010--101010--10--1010--101010--12--1212--12121212--12--12--121212-|
A|--10--1010--101010--10--1010--101010--12--1212--12121212--12--12--121212-|
E|---8---8-8---8-8-8---7---7-7---7-7-7--10--1010--10101010--10--10--101010-|

     **Fourth Time**

e|-----------------------------------------------------------------|
B|-----------------------------------------------------------------|
G|-----------------------------------------------------------------|
D|--10--1010--101010---10--1010--101010---7--77--7777--7--7--777---|
A|--10--1010--101010---10--1010--101010---7--77--7777--7--7--777---|
E|--8---8-8---8-8-8----7---7-7---7-7-7----5--55--5555--5--5--555---|

   Outro:

e|------------------------------------------------|  \
B|------------------------------------------------|   \
G|------------------------------------------------|    \
D|--3--33--3333--3-3-333---5--55--5555--5-5--555--|     \
A|--3--33--3333--3-3-333---5--55--5555--5-5--555--|      \
E|--1--11--1111--1-1-111---3--33--3333--3-3--333--|       \
                                                           \
                                                             x4
e|--------------------------------------------|            /
B|--------------------------------------------|           /
G|--------------------------------------------|          /
D|--7-77--7777--7-7-777--7-77--7777--7-7-777--|         / 
A|--7-77--7777--7-7-777--7-77--7777--7-7-777--|        /
E|--5-55--5555--5-5-555--5-55--5555--5-5-555--|_______/        


e|--------------|
B|--------------|
G|--------------|
D|--3~--5~--7\--|
A|--3~--5~--7\--|
E|--1~--3~--5\--|



| /  slide up
| \  slide down
| h  hammer-on
| p  pull-off
| ~  vibrato
| +  harmonic
| x  Mute note

There you have it. If you have any questions or comments email me at StormWrestling09@aim.com
============================================================================
Tap to rate this tab
# A B C D E F G H I J K L M N O P Q R S T U V W X Y Z