Song name
# A B C D E F G H I J K L M N O P Q R S T U V W X Y Z

The Forecast - Youre My Needle tab

-----------------------------------------------------------------------------
			     You're My Needle - The Forecast
-----------------------------------------------------------------------------
Tabbed by:Matt
Email:Rockerlagrocker@aol.com

Tuning:Standard

Intro/Verse
Guitar 1
e|-----------------|--------------------------------------------------------|
B|-3--3--3--3-5/3--|-----3--3--3--3-5/3-------------------------------------|
G|--0--0--0--0-----|------0--0--0--0----------------------------------------|
D|-----------------|x2------------------------------------------------------|
A|3--3--3--3-------|----2--2--2--2------------------------------------------|
E|-----------------|--------------------------------------------------------|

Guitar 2
e|-----------------|----------------------------------------------------------|
B|-----------------|----------------------------------------------------------|
G|9-7--------------|----------------------------------------------------------|
D|----9--7-7h9p7/5-|--x2------------------------------------------------------|
A|-----------------|------7-7h10-10-------------------------------------------|
E|-----------------|-----------------7-7h10-10--------------------------------|


I'll figure out the other part later im lazy.

| /  slide up
| \  slide down
| h  hammer-on
| p  pull-off
| ~  vibrato
| +  harmonic
| x  Mute note
===============================================================================
Tap to rate this tab
# A B C D E F G H I J K L M N O P Q R S T U V W X Y Z