Song name
# A B C D E F G H I J K L M N O P Q R S T U V W X Y Z

The Forecast - Seating Subject To Availability tab

Help us improve GuitareTab! Take a short survey!
-------------------------------------------------------------------------------
			     SEATING SUBJECT TO AVAILABILITY - The Forecast
-------------------------------------------------------------------------------
Tabbed by: Chris Leisz
Email: reducedfatcreamy@yahoo.com

Tuning: Standard

Album: Late Night Conversations

This is the first tab i've done of a full song; beginning to end.
I wouldn't say that it's 100% accurate, but it sounds well enough.
The best thing to do is to listen to the song while you play. Enjoy!!!!

Guitar I
Intro:
e|---------------------------------------------------------------------------|
B|---------------------------------------------------------------------------|
G|--99999999999999999999999999999999-----------------------------------------|
D|--xxxxxxxxxxxxxxxxxxxxxxxxxxxxxxxx-----------------------------------------|
A|--77777777777777777777777777777777-----------------------------------------|
E|---------------------------------------------------------------------------|

Guitar II
Intro:
e|---------------------------------------------------------------------------|
B|---------------------------------------------------------------------------|
G|------------------13131313131313131313131313131313-------------------------|
D|------------------xxxxxxxxxxxxxxxxxxxxxxxxxxxxxxxx-------------------------|
A|------------------11111111111111111111111111111111-------------------------|
E|---------------------------------------------------------------------------|
                      NOTE: Those are 11's not 1's
Guitar I
Pre-Verse:
e|--------------------------------------------------------------------------------|
B|--------------------------------------------------------------------------------|
G|--4/999\4-44/999\4-44/9--4/999\4-44/999\4-44/9--99999999999999999999999999999999|
D|--4/999\4-44/999\4-44/9--4/999\4-44/999\4-44/9--xxxxxxxxxxxxxxxxxxxxxxxxxxxxxxxx|
A|--2/777\2-22/777\2-22/7--2/777\2-22/777\2-22/7--77777777777777777777777777777777|
E|--------------------------------------------------------------------------------|

e|--------------------------------------------------------------------------------|
B|--------------------------------------------------------------------------------|
G|--4/999\4-44/999\4-44/9--4/999\4-44/999\4-44/9--99999999999999999999999999999999|
D|--4/999\4-44/999\4-44/9--4/999\4-44/999\4-44/9--xxxxxxxxxxxxxxxxxxxxxxxxxxxxxxxx|
A|--2/777\2-22/777\2-22/7--2/777\2-22/777\2-22/7--77777777777777777777777777777777|
E|--------------------------------------------------------------------------------|

Guitar II
Pre-Verse:
e|----------------------------------------------------------------------------------------------------------------|
B|----------------------------------------------------------------------------------------------------------------|
G|--4/999\4-44/999\4-44/9--4/999\4-44/999\4-44/9--1313131313131313131313131313131312121212121212121212121212121212|
D|--4/999\4-44/999\4-44/9--4/999\4-44/999\4-44/9--xxxxxxxxxxxxxxxxxxxxxxxxxxxxxxxxxxxxxxxxxxxxxxxxxxxxxxxxxxxxxxxx|
A|--2/777\2-22/777\2-22/7--2/777\2-22/777\2-22/7--1111111111111111111111111111111110101010101010101010101010101010|
E|----------------------------------------------------------------------------------------------------------------|

e|----------------------------------------------------------------------------------------------------------------|
B|----------------------------------------------------------------------------------------------------------------|
G|--4/999\4-44/999\4-44/9--4/999\4-44/999\4-44/9--1313131313131313131313131313131312121212121212121515151515151515|
D|--4/999\4-44/999\4-44/9--4/999\4-44/999\4-44/9--xxxxxxxxxxxxxxxxxxxxxxxxxxxxxxxxxxxxxxxxxxxxxxxxxxxxxxxxxxxxxxxx|
A|--2/777\2-22/777\2-22/7--2/777\2-22/777\2-22/7--1111111111111111111111111111111110101010101010101313131313131313|
E|----------------------------------------------------------------------------------------------------------------|

Guitar I
Verse:
e|---------------------------------------------------------------------------|
B|---------------------------------------------------------------------------|
G|--999999999999999-666666666666666-777777777777777-777777777777777----------|
D|--xxxxxxxxxxxxxxx-xxxxxxxxxxxxxxx-xxxxxxxxxxxxxxx-xxxxxxxxxxxxxxx----------|
A|--777777777777777-444444444444444-555555555555555-555555555555555----------|
E|---------------------------------------------------------------------------|

You can also play it this way;
what ever you think sounds better.
e|---------------------------------------------------------------------------|
B|---------------------------------------------------------------------------|
G|--999999999999999-999999999999999-999999999999999-999999999999999----------|
D|--xxxxxxxxxxxxxxx-xxxxxxxxxxxxxxx-xxxxxxxxxxxxxxx-xxxxxxxxxxxxxxx----------|
A|--777777777777777-777777777777777-777777777777777-777777777777777----------|
E|---------------------------------------------------------------------------|

Guitar II
Verse:
e|---------------------------------------------------------------------------|
B|---------------------------------------------------------------------------|
G|--444444444444444-666666666666666-777777777777777-7777777/14141414141414---|
D|--444444444444444-666666666666666-777777777777777-xxxxxxxxxxxxxxxxxxxxxx---|
A|--222222222222222-444444444444444-555555555555555-5555555/12121212121212---|
E|---------------------------------------------------------------------------|

Guitars I & II
Chorus:
e|--------------------------------------------------------0~~~---------------|
B|--------------------------------------------------------0~~~---------------|
G|--444444444444444-999999999999999-444444444444444-99999-9~~~---------------|
D|--444444444444444-999999999999999-444444444444444-99999-9~~~---------------|
A|--222222222222222-777777777777777-222222222222222-77777-7~~~---------------|
E|---------------------------------------------------------------------------|

e|--------------------------------------------------------0~~~-----0~~~-----0~~~-----0~~~-|
B|--------------------------------------------------------0~~~-----0~~~-----0~~~-----0~~~-|
G|--444444444444444-999999999999999-444444444444444-99999-9~~~-999-9~~~-999-9~~~-999-9~~~-|
D|--444444444444444-999999999999999-444444444444444-99999-9~~~-999-9~~~-999-9~~~-999-9~~~-|
A|--222222222222222-777777777777777-222222222222222-77777-7~~~-777-7~~~-777-7~~~-777-7~~~-|
E|----------------------------------------------------------------------------------------|

The verse is the same, except the strumming is different.
just listen to the song and you'll get it.
Though, when guitar II comes in, guitar I does some du du du
thing. I think it's the same as the first verse, except he's
just hitting the higher notes. listen and you'll get it.

The chorus is also the same, except it's extended.

Guitar I
Outro:
e|---------------------------------------------------------------------------|
B|---------------------------------------------------------------------------|
G|--77777-777777-1111111111-111111111111-------------77777-------------------|
D|--77777-777777-1111111111-111111111111---END-WITH--77777-------------------|
A|--55555-555555--9-9-9-9-9--9-9-9-9-9-9-------------55555-------------------|
E|---------------------------------------------------------------------------|

Guitar II
Outro:
e|---------------------------------------------------------------------------|
B|---------------------------------------------------------------------------|
G|---------------------------------------------------77777-------------------|
D|----7-7----11-11----7-7----11-11----7-7----11-11---77777-------------------|
A|--55-5-5-99--9--9-55-5-5-99--9--9-55-5-5-99--9--9--55555-------------------|
E|---------------------------------------------------------------------------|

Lyrics:
lay down, lets start a family
lay my fears, and my failures
to rest, (you can't sleep,) no more dreams, (you can't see your future)
you'll lie awake waiting for your moment
to shine, (you can't waste,) precious time
just waiting
weighed down by the fears of our fathers can't stop us now
because
waking up with the road moving under our feet
is what moves us
lay down, you're almost dead now
you're getting older, we're getting colder
you're moving out
you'll trade your six string for a family
and a desk
and i don't blame you for giving up
i don't blame you for giving up
weighed down by the fears of our fathers can't stop us now
because
waking up with the road moving under our feet
is what moves us

| /  slide up
| \  slide down
| h  hammer-on
| p  pull-off
| ~  vibrato
| +  harmonic
| x  Mute note
===============================================================================
Related for Seating Subject To Availability tab