Song name
# A B C D E F G H I J K L M N O P Q R S T U V W X Y Z

The Forecast - May You One Day Carry Me Home tab

                (May You One Day) Carry Me Home - The Forecast
----------------------------------------------------------------------------------------------|
Tabbed by: Marko Babic
Email: markotbabic@hotmail.com

Tuning: Standard ( E A D G B e )

Intro/Verse
Rythym:
Listen for rythym, these are the chords.
e|---------------------------------------------------------------------------|
B|---------2---2-------------------------------------------------------------|
G|-9---8---2---2-------------------------------------------------------------|
D|-9---9---2---2-------------------------------------------------------------|
A|-7---6---0---0-------------------------------------------------------------|
E|---------------------------------------------------------------------------|

Lead:
In the time the rythym plays the above chords, the lead plays this.
e|-------------------------------------------------------------------------|
B|-------------------------------------------------------------------------|
G|-9---8---11-9--11-9------------------------------------------------------|
D|-9---9---x--x--x--x------------------------------------------------------|
A|-7---6---9--7--9--7------------------------------------------------------|
E|-------------------------------------------------------------------------|


Chorus
Rythym:
e|-------------------------------------------------------------------------|
B|-------------------------------------------------------------------------|
G|-4---6---9---9---9----9--------------------------------------------------|
D|-4---6---9---9---9----9--------------------------------------------------|
A|-2---4---7---7---7----7--------------------------------------------------|
E|-------------------------------------------------------------------------|

Lead:
e|-------------------------------------------------------------------------|
B|-------------------------------------------------------------------------|
G|-4---6---9---11--13---16-------------------------------------------------|
D|-4---6-------------------------------------------------------------------|
A|-2---4---7---9---11---14-------------------------------------------------|
E|-------------------------------------------------------------------------|

Verse Again
Chorus Again

Bridge
Rythym:
e|-------------------------------------------------------------------------|
B|-------------------------------------------------------------------------|
G|-6--6--6--6--6\--4--4--4--6--6--6--6--2-2-2-2--2-2-2--4--4--4--4---------|
D|-6--6--6--6--6\--4--4--4--6--6--6--6--2-2-2-2--2-2-2--4--4--4--4---------|
A|-4--4--4--4--4\--2--2--2--4--4--4--4--0-0-0-0--0-0-0--2--2--2--2---------|
E|-------------------------------------------------------------------------|

Lead:
e|-------------------------------------------------------------------------|
B|-------------------------------------------------------------------------|
G|-13-13-13-13\---11-11-11-13-13-13-13--9-9-9-9\-9-9-9--11-11-11-11--------|
D|-------------------------------------------------------------------------|
A|-11-11-11-11\---9--9--9--11-11-11-11--7-7-7-7\-7-7-7--9--9--9--9---------|
E|-------------------------------------------------------------------------|

In the transition into the next part, palm mute the A chord (x022xxx) on the rythym on
e octave chord on the lead (x7x9xx).  On of the guitar hits these harmonics right before
in:

e|-----|
B|-----|
G|-+7+-|
D|-+7+-|
A|-+7+-|
E|-----|

I can't really hear the faint guitar that's pretty much just there to fill out the
but if you fool around with an A and E (5th fret on the high e string and 5th fret on 
B
you get something pretty close to it, the bass note(s) of it escapes me. :(

Interlude
Rythym:
e|-------------------------------------------------------------------------|
B|-------------------------------------------------------------------------|
G|-9---8---6---------------------------4-----------------------------------|
D|-9---9---6---------------------------4-----------------------------------|
A|-7---6---4---------------------------2-----------------------------------|
E|-------------------------------------------------------------------------|

Lead:
The octave chords in this section are very faint but if you listen hard you'll get the rythym.
e|-------------------------------------------------------------------------|
B|-------------------------------------------------------------------------|
G|-9---8---16-------------13-----------16--13--11--13----------------------|
D|-9---9-------------------------------------------------------------------|
A|-7---6---14-------------11-----------14--11--9---11----------------------|
E|-------------------------------------------------------------------------|

Outro
The song ends on:

e|---|
B|-9-|
G|-9-|
D|-9-|
A|-7-|
E|---|

On guitar fiddles around with this, listen for this:

e|---------|
B|---------|
G|-9-9--6--|
D|-6-6--7--|
A|-7-7--4--|
E|---------|

| /  slide up
| \  slide down
| h  hammer-on
| p  pull-off
| ~  vibrato
| +  harmonic
| x  Mute note
===============================================================================
Tap to rate this tab
# A B C D E F G H I J K L M N O P Q R S T U V W X Y Z