Song name
# A B C D E F G H I J K L M N O P Q R S T U V W X Y Z

The Forecast - Every Gun Makes Its Own Tomb tab

-------------------------------------------------------------------------------
			     Every Gun Makes Its Own Tomb - The Forecast
-------------------------------------------------------------------------------

Tuning: Standard

Intro
Guitar 1 (0:00 - 0:19)
e|------------------------------|
B|------------------------------|
G|--2-2-2-2---2-2---2-2---2-----|
D|--2-2-2-2---2-2---2-2---2-----|  x8
A|--0-0-0-3p0-0-3p0-0-3p0-3/5---|
E|------------------------------|

Guitar 2 (0:09 - 0:17)
e|------------------|
B|------------------|
G|------------------|
D|--7---7---7---7---|
A|--7---7---7---7---|
E|--5---5---5---5---|

Verse
Guitar 1 (0:19 - 0:23)
e|----------------------------------|
B|----------------------------------|
G|--5-5-2-2-0h2-2p0-----0h2-2p0-----|
D|------------------2-2---------2---| x2
A|----------------------------------|
E|----------------------------------|

Guitar 2 (0:19 - 0:23)
e|-------------------------------------------------------------|
B|-------------------------------------------------------------|
G|-------------------------------------------------------------|
D|--7-7------------------------7--7-7-----------------------7--|
A|--7-7--7-7-7-7-7-7-7-7-7-7-7-7--7-7-7-7-7-7-7-7-7-7-7-7-7-7--|
E|--5-5--5-5-5-5-5-5-5-5-5-5-5-5--5-5-5-5-5-5-5-5-5-5-5-5-5-5--|
PM       . . . . . . . . . . .        . . . . . . . . . . .    

Guitar 1 (0:24 - 0:28)
e|----------------------------------|
B|----------------------------------|
G|--5--5-5-5-5\2-2-2-2-0-0-0-0-2-2--|
D|----------------------------------|  x2
A|----------------------------------|
E|----------------------------------|

Guitar 2 (0:24 - 0:28)
e|----------------------------------------|
B|----------------------10-10-10-10-10-10-|
G|-7-7-7-7-7-7-7-7-7-7--x--x--x--x--x--x--|
D|-7-7-7-7-7-7-7-7-7-7--7--7--7--7--7--7--|  x2
A|-5-5-5-5-5-5-5-5-5-5--------------------|
E|----------------------------------------|

Guitar 1 (0:28 - 0:33)
e|----------------------------------|
B|----------------------------------|
G|--5-5-2-2-0h2-2p0-----0h2-2p0-----|
D|------------------2-2---------2---| x2
A|----------------------------------|
E|----------------------------------|

Guitar 2 (0:28 - 0:33)
e|-------------------------------------------------------------|
B|-------------------------------------------------------------|
G|-------------------------------------------------------------|
D|--7-7------------------------7--7-7-----------------------7--|
A|--7-7--7-7-7-7-7-7-7-7-7-7-7-7--7-7-7-7-7-7-7-7-7-7-7-7-7-7--|
E|--5-5--5-5-5-5-5-5-5-5-5-5-5-5--5-5-5-5-5-5-5-5-5-5-5-5-5-5--|
PM       . . . . . . . . . . .        . . . . . . . . . . .    

Guitar 1 (0:34 - 0:38)
e|----------------------------------|
B|----------------------------------|
G|--5--5-5-5-5\2-2-2-2-0-0-0-0-2-2--|
D|----------------------------------|  x2
A|----------------------------------|
E|----------------------------------|

Guitar 2 (0:34 - 0:38)
e|----------------------------------------|
B|----------------------10-10-10-10-10-10-|
G|-7-7-7-7-7-7-7-7-7-7--x--x--x--x--x--x--|
D|-7-7-7-7-7-7-7-7-7-7--7--7--7--7--7--7--|  x2
A|-5-5-5-5-5-5-5-5-5-5--------------------|
E|----------------------------------------|

Guitar 1 (0:38 - 0:43)
e|----------------------------------|
B|----------------------------------|
G|--5-5-2-2-0h2-2p0-----0h2-2p0-----|
D|------------------2-2---------2---| x2
A|----------------------------------|
E|----------------------------------|

Guitar 2 (0:38 - 0:43)
e|-------------------------------------------------------------|
B|-------------------------------------------------------------|
G|-------------------------------------------------------------|
D|--7-7------------------------7--7-7-----------------------7--|
A|--7-7--7-7-7-7-7-7-7-7-7-7-7-7--7-7-7-7-7-7-7-7-7-7-7-7-7-7--|
E|--5-5--5-5-5-5-5-5-5-5-5-5-5-5--5-5-5-5-5-5-5-5-5-5-5-5-5-5--|
PM       . . . . . . . . . . .        . . . . . . . . . . .    

Guitar 1 (0:43 - 0:48)
e|----------------------------------|
B|----------------------------------|
G|--5--5-5-5-5\2-2-2-2-0-0-0-0-2-2--|
D|----------------------------------|  x2
A|----------------------------------|
E|----------------------------------|

Guitar 2 (0:43 - 0:48)
e|----------------------------------------|
B|----------------------10-10-10-10-10-10-|
G|-7-7-7-7-7-7-7-7-7-7--x--x--x--x--x--x--|
D|-7-7-7-7-7-7-7-7-7-7--7--7--7--7--7--7--|  x2
A|-5-5-5-5-5-5-5-5-5-5--------------------|
E|----------------------------------------|

Chorus
Guitar 1 (0:48 - 0:58)
e|-------------------------------------------------------------------------------|
B|-------------------------------------------------------------------------------|
G|-14--14-14--14-14-14-6-6-6-7-7-7/11-11-11-11-11-11-11-11-12-12-12-12-12-12-12-|
D|-x---x--x---x--x--x--x-x-x-x-x-x/x--x--x--x--x--x--x--x--x--x--x--x--x--x--x--|   x2
A|-12--12-12--12-12-12-4-4-4-5-5-5/9--9--9--9--9--9--9--9--10-10-10-10-10-10-10-|
E|-------------------------------------------------------------------------------|

Guitar 2 (0:48 - 0:58)
e|---------------------------------------------------------|
B|---------------------------------------------------------|
G|---------------------------------------------------------|
D|-7--7-7--7-7-7-4--4-4--4-4-4-5--5-5--5-5-5-5--5-5--5-5-5-|  x2
A|-7--7-7--7-7-7-4--4-4--4-4-4-5--5-5--5-5-5-5--5-5--5-5-5-|
E|-5--5-5--5-5-5-2--2-2--2-2-2-3--3-3--3-3-3-3--3-3--3-3-3-|

Verse - Same as last verse (0:58 - 1:28)

Chorus
Guitar 1 (1:28 - 1:32)
e|-------------------------------------------------------------------------------|
B|-------------------------------------------------------------------------------|
G|-14--14-14--14-14-14-6-6-6-7-7-7/11-11-11-11-11-11-11-11-12-12-12-12-12-12-12-|
D|-x---x--x---x--x--x--x-x-x-x-x-x/x--x--x--x--x--x--x--x--x--x--x--x--x--x--x--|
A|-12--12-12--12-12-12-4-4-4-5-5-5/9--9--9--9--9--9--9--9--10-10-10-10-10-10-10-|
E|-------------------------------------------------------------------------------|

Guitar 2 (1:28 - 1:32)
e|---------------------------------------------------------|
B|---------------------------------------------------------|
G|---------------------------------------------------------|
D|-7--7-7--7-7-7-4--4-4--4-4-4-5--5-5--5-5-5-5--5-5--5-5-5-|
A|-7--7-7--7-7-7-4--4-4--4-4-4-5--5-5--5-5-5-5--5-5--5-5-5-|
E|-5--5-5--5-5-5-2--2-2--2-2-2-3--3-3--3-3-3-3--3-3--3-3-3-|

Guitar 1 (1:33 - 1:36)
e|------------------------------------------------------------|
B|------------------------------------------------------------|
G|-14--14-14--14-14-14-6-6-6-7-7-7/11-11-11-11-11-11-11-11-12-|
D|-x---x--x---x--x--x--x-x-x-x-x-x/x--x--x--x--x--x--x--x--x--|
A|-12--12-12--12-12-12-4-4-4-5-5-5/9--9--9--9--9--9--9--9--10-|
E|------------------------------------------------------------|

Guitar 2 (1:33 - 1:36)
e|---------------------------------------------|
B|---------------------------------------------|
G|---------------------------------------------|
D|-7--7-7--7-7-7-4--4-4--4-4-4-5--5-5--5-5-5-5-|
A|-7--7-7--7-7-7-4--4-4--4-4-4-5--5-5--5-5-5-5-|
E|-5--5-5--5-5-5-2--2-2--2-2-2-3--3-3--3-3-3-3-|

Guitar 1 (1:37 - 1:42)
e|----------------------------------------------------------------------------------|
B|----------------------------------------------------------------------------------|
G|---------------------x-x-x--6-6-6-7-x-x-11-11-11-11-11-11-11-12-12-12-12-12-12-12-|
D|-------10------------x-x-x--x-x-x-x-x-x-x--x--x--x--x--x--x--x--x--x--x--x--x--x--|
A|-10h12----12-10-12\--x-x-x--4-4-4-5-x-x-9--9--9--9--9--9--9--10-10-10-10-10-10-10-|
E|-10------------------x-x-x----------x-x-------------------------------------------|

Guitar 2 (1:37 - 1:42)
e|--------------------------------------------------------------|
B|--------------------------------------------------------------|
G|--------------------------------------------------------------|
D|--------------x-x-x--4-4-4-x-x-x--5--5-5-5--5-5-5--5-5-5-5-5--|
A|-----3p0------x-x-x--4-4-4-x-x-x--5--5-5-5--5-5-5--5-5-5-5-5--|
E|-3h5-----3-5\-x-x-x--2-2-2-x-x-x--3--3-3-3--3-3-3--3-3-3-3-3--|

Guitar 1 (1:42 - 1:47)
e|----------------------------------------------------------------------|
B|----------------------------------------------------------------------|
G|-14-14-14-x-x-x--6-6-6-7-x-x-11-11-11-11-11-11-11-12-12-12-12-12-12-12-|
D|-x--x--x--x-x-x--x-x-x-x-x-x-x--x--x--x--x--x--x--x--x--x--x--x--x--x-|
A|-12-12-12-x-x-x--4-4-4-5-x-x-9--9--9--9--9--9--9--10-10-10-10-10-10-10-|
E|----------x-x-x----------x-x------------------------------------------|

Guitar 2 (1:42 - 1:47)
e|-----------------------------------------------------|
B|-----------------------------------------------------|
G|-----------------------------------------------------|
D|-7-7-7-x-x-x--4--4-x-x-x--5--5--5--5-5-5--5-5-5-5-5--|
A|-7-7-7-x-x-x--4--4-x-x-x--5--5--5--5-5-5--5-5-5-5-5--|
E|-5-5-5-x-x-x--2--2-x-x-x--3--3--3--3-3-3--3-3-3-3-3--|

Guitar 1 (1:47 - 1:49)
e|-----------------------------------------|
B|-----------------------------------------|
G|-12-12-12-12-12\11-11-11-11\9-9-9-9-9-9--|
D|-x--x--x--x--x-\x--x--x--x-\x-x-x-x-x-x--|
A|-10-10-10-10-10\9--9--9--9-\7-7-7-7-7-7--|
E|-----------------------------------------|

Guitar 1 (1:50 - 1:54)
e|--------------------------------------------------------------------------|
B|--------------------------------------------------------------------------|
G|-12-12-12-12-12/14-14-14-14/16-16-16-16-16-16/17\16/17\16/17\16/17\16/17\--|
D|-x--x--x--x--x-/x--x--x--x-/x--x--x--x--x--x--x--x--x--x--x--x--x--x--x-\-|
A|-10-10-10-10-10/12-12-12-12/14-14-14-14-14-14-15-14-15-14-15-14-15-14-15\-|
E|--------------------------------------------------------------------------|

Guitar 2 (1:47 - 1:54)
e|-------------------------------------------------------------------------|
B|-------------------------------------------------------------------------|
G|-------------------------------------------------------------------------|
D|-5--5-5-5--5-5-5--5-5-5-5-5--5--5-5-5--5-5-5--5-5-5-5-5--5--5--5--5-5-5\-|
A|-5--5-5-5--5-5-5--5-5-5-5-5--5--5-5-5--5-5-5--5-5-5-5-5--5--5--5--5-5-5\-|
E|-3--3-3-3--3-3-3--3-3-3-3-3--3--3-3-3--3-3-3--3-3-3-3-3--3--3--3--3-3-3\-|

Outro
Guitar 1 (1:54 - 2:16)
e|-------------------------------------------------------|
B|-------------------------------------------------------|
G|--2-2-2-2---2-2---2-2---2----2-2-2-2---2-2---2-2-------|
D|--2-2-2-2---2-2---2-2---2----2-2-2-2---2-2---2-2---x-5-|  x4
A|--0-0-0-3p0-0-3p0-0-3p0-3/5--0-0-0-3p0-0-3p0-0-3p0-x-5-|
E|---------------------------------------------------x-3-|

Guitar 2 (1:54 - 2:16)
e|--------------------------------------------------|
B|--------------------------------------------------|
G|--------------------------------------------------|
D|--7---7--x-5--7---7--x-5--7---7--x-5--7---7--x-5--|
A|--7---7--x-5--7---7--x-5--7---7--x-5--7---7--x-5--|
E|--5---5--x-3--5---5--x-3--5---5--x-3--5---5--x-3--|

Guitar 1 (2:16 - 2:18)
e|----------|
B|----------|
G|----------|
D|----------|
A|----------|
E|--3h5p3-5-|

Guitar 2 (2:18)
e|-----|
B|-----|
G|-----|
D|--7--|
A|--7--|
E|--5--|

| /  slide up
| \  slide down
| h  hammer-on
| p  pull-off
| ~  vibrato
| +  harmonic
| x  Mute note
===============================================================================
Tap to rate this tab
# A B C D E F G H I J K L M N O P Q R S T U V W X Y Z