Song name
# A B C D E F G H I J K L M N O P Q R S T U V W X Y Z

The Forgotten - Respect And Lies tab

1----------------------------------------------------------------|
2----------------------------------------------------------------|
3---------------------------7-x-x-7------------------------------|
4--2-x-x-2----5-x-x-5---7-x-x-7---7-x-x-7------X2----------------|
5--2-x-x-2----5-x-x-5---5-x-x-5---7-x-x-7------------------------|
6--0-x-x-0----3-x-x-3---------------5-x-x-5----------------------|

1----------------------------------------------------------------------|
2----------------------------------------------------------------------|
3--------------------------------------7-7---7-7-7-7-------------------|
4--2-2---2-2-2-2--5-5---5-5-5-5--7-7---7-7-7-7--7-7---7-7-7-7----------|
5--2-2---2-2-2-2--5-5---5-5-5-5--5-5---5-5-5-5--7-7---7-7-7-7----5-5h7-|
6--0-0---0-0-0-0--3-3---3-3-3-3--------------------5-5---5-5-5-5-------|

if you can figure out the solo please e-mail me (romonaligionaci@aim.com)cuse i cant 
that part out.
Tap to rate this tab
 
# A B C D E F G H I J K L M N O P Q R S T U V W X Y Z