Song name
# A B C D E F G H I J K L M N O P Q R S T U V W X Y Z

The Forsaken - Daemon Breed tab

Help us improve GuitareTab! Take a short survey!
-------------------------------------------------------------------------------
			     DAEMON BREED - The Forsaken
-------------------------------------------------------------------------------
Tabbed by: Beerslayer420
Email: sk8pantera@yahoo.com

this is most of the song. Nobody has any tabs so i'll put some up.

Tuning:Standard

A: tremelo picking, Play A 2x

e|---------------------------------------------------------------------------|
B|---------------------------------------------------------------------------|
G|---------------------------------------------------------------------------|
D|---------2-----------1-----------4--5--2--4--5-----------------------------|
A|------2-----2-----2-----2-----2--------------------------------------------|
E|---0-----------0-----------0-----------------------------------------------|

e|---------------------------------------------------------------------------|
B|---------------------------------------------------------------------------|
G|---------------------------------------------------------------------------|
D|---------2-----------1-----------2-----------------------------------------|
A|------2-----2-----2-----2-----2-----2--5p-4p-2--2h-4h-5-2h-4h-5------------|
E|---0-----------0-----------0-----------3--2--0--0--2--3-0--2--3------------|

B: tremelo picking, play 2x

e|---------------------------------------------------------------------------|
B|---------------------------------------------------------------------------|
G|---------------------------------------------------------------------------|
D|----------9-----7-----10-7--9------------9------7-----10-7--9^-------------|
A|-------7-----10----------------9------7-----10-----------------------------|
E|----0--------------8---------------0---------------8-----------------------|

reapeat A 2x

C: tremelo picking, play 6x

e|---------------------------------------------------------------------------|
B|---------------------------------------------------------------------------|
G|---------------------------------------------------------------------------|
D|-------4--------------4----------------------------------------------------|
A|----2-----5-----1--2-----5-----1h-2--4-------------------------------------|
E|-------------3--------------2----------------------------------------------|

D: palm mute, play 1x

e|---------------------------------------------------------------------------|
B|---------------------------------------------------------------------------|
G|---------------------------------------------------------------------------|
D|---------------------------------------------------------------------------|
A|----2---2---2---2----------------------------------------------------------|
E|----0---0---0---0----------------------------------------------------------|

E: regular picking fast tempo, play 2x

e|---------------------------------------------------------------------------|
B|---------------------------------------------------------------------------|
G|---------------------------------------------------------------------------|
D|-------9p-7-----7-----10p-9--7--9-----9p-7---------------------------------|
A|----7--------10-----------------------------10-9-----6h7--9--7-------------|
E|-------------------8---------------0--------------7------------------------|

e|---------------------------------------------------------------------------|
B|---------------------------------------------------------------------------|
G|---------------------------------------------------------------------------|
D|-------9p-7-----7-----10p-9--7--9-----9p-7---------------------------------|
A|----7--------10-----------------------------10-9-----------6^--------------|
E|-------------------8---------------0--------------7-7-7-7------------------|

F: tremelo picking, play 2x

e|---------------------------------------------------------------------------|
B|---------------------------------------------------------------------------|
G|---------------------------------------------------------------------------|
D|---------------------------------------------------------------------------|
A|----7-----------7-----------7-----------7-----10----9----------------------|
E|-------7--8--5-----7--8--5-----7--8--5-----0-----0-------------------------|

e|---------------------------------------------------------------------------|
B|---------------------------------------------------------------------------|
G|---------------------------------------------------------------------------|
D|---------------------------------------------------------------------------|
A|----7-----------7-----------7-----------2--2--2----------------------------|
E|-------7--8--5-----7--8--5-----7--8--5--0--0--0----------------------------|

repeat A 2x
repeat C 6x
repeat D 1x
repeat E 2x
repeat F 2x


| /  slide up
| \  slide down
| h  hammer-on
| p  pull-off
| ~  vibrato
| +  harmonic
| x  Mute note
===============================================================================
Related for Daemon Breed tab