Song name
# A B C D E F G H I J K L M N O P Q R S T U V W X Y Z

The Forsaken - Cold Flesh Colony tab

-------------------------------------------------------------------------------
			     COLD FLESH COLONY - The Forsaken
-------------------------------------------------------------------------------
Tabbed by: beerslayer420
Email:sk8pantera@yahoo.com

Tuning:Down Full Step, No solo yet.

Intro

e|---------------------------------------------------------------------------|
B|---------------------------------------------------------------------------|
G|---------------------------------------------------------------------------|
D|------------------------------------------------10h13p10-7h10p7------------|
A|------------6-7-----9-10-----6-7---10-9h10p9------------------9h12p9-------|
E|0-0-7-8-0-0-----0-0------0-0----0-0---------0-0---------------------6h9p6--

Part A:

e|---------------------------------------------------------------------------|
B|---------------------------------------------------------------------------|
G|---------------------------------------------------------------------------|
D|----------------------------------------7h10p7-4h7p4-----------------------|
A|-----------6-7---9-10---6-7---7-6h7p6---------------6h9p6-3h6p3------------|
E|0-0-7-8-0-0---0-0----0-0---0-0-------0-0-----------------------------------|

e|---------------------------------------------------------------------------|
B|---------------------------------------------------------------------------|
G|---------------------------------------------------------------------------|
D|---------------------------------------------------------------------------|
A|-----------6-7---9-10---6-7---10-9h10p9----7-----6-------------------------|
E|0-0-7-8-0-0---0-0----0-0---0-0----------0-0--0-0---0-0-8-------------------|

Part B:
e|---------------------------------------------------------------------------|
B|---------------------------------------------------------------------------|
G|------------------------------------------------------5-8------------------|
D|---------------------------4-7--------------------4-7----------------------|
A|------------6-------5--3-6----------6---5-----3-6---------4-7--------------|
E|3-3-3-3-333-----3-3-------------3-3-------3-3------------------------------|

e|---------------------------------------------------------------------------|
B|---------------------------------------------------------------------------|
G|---------------------------------------------------------------------------|
D|---------------------------4-7---------------------------------------------|
A|------------6-------5--3-6-------------------------------------------------|
E|3-3-3-3-333-----3-3--------------------------------------------------------|

e|---------------------------------------------------------------------------|
B|---------------------------------------------------------------------------|
G|--------------------5-8-----------8-11-------------------------------------|
D|----------------4-7----------7-10-----------10-13--------------------------|
A|----6-5-----3-6----------6-9-----------9-12--------------------------------|
E|3-3-----3-3----------------------------------------------------------------|

e|---------------------------------------------------------------------------|
B|---------------------------------------------------------------------------|
G|---------------------------------------------------------------------------|
D|---------------------------------------------------------------------------|
A|------------6-7-----9-10---------------------------------------------------|
E|000-7-8-000-----000------000-----------------------------------------------|

Play Part A:

Play Part B:

Part B(cont.): Tremelo picking

e|---------------------------------------------------------------------------|
B|---------------------------------------------------------------------------|
G|----------------------5-8----------8-11------------------------------------|
D|------------------4-7---------7-10-----------------------------------------|
A|-----6-5------3-6---------6-9----------------------------------------------|
E|3333-----3333--------------------------------------------------------------|

Part C:

e|---------------------------------------------------------------------------|
B|---------------------------------------------------------------------------|
G|---------------------------------------------------------------------------|
D|2-------3-------------------4--------2-------------4-----------------------|
A|2-------3----------------------------2-------6-3-6---6-3-------------------|
E|0---0-0-1---0-0-3-2-3-5-3-2------0-0-0---0-0-------------5-2---------------|

e|-----------------------------------------------------6---------------------|
B|-----------------------------------------------------6---------------------|
G|-----------------------------------------------------6---------------------|
D|2-------3-------------------4------2-------5-4-5-----8---------------------|
A|2-------3--------------------------2-------7-6-7-----8---------------------|
E|0---0-0-1---0-0-3-2-3-5-3-2----0-0-0---0-0-------0-0-6---------------------|

e|---------------------------------------------------------------------------|
B|---------------------------------------------------------------------------|
G|---------------------------------------------------------------------------|
D|2--------------------------4-----------------------------------------------|
A|2------3-------------------------------------------------------------------|
E|0--0-0-1---0-0-3-2-3-5-3-2-------------------------------------------------|

e|---------------------------------------------------------------------------|
B|---------------------------------------------------------------------------|
G|---------------------------------------------------------------------------|
D|------2-------9-7----------7-10------10-13-------13-16---------------------|
A|------2-----------10-9-6-9------9-12-------12-15---------------------------|
E|--0-0-0---0-0--------------------------------------------------------------|

Play Part A:

Play Part B:

Part B: Ending

e|---------------------------------------------------------------------------|
B|---------------------------------------------------------------------------|
G|----------------------------------------------6-9--------------------------|
D|--------------------5-8----------8-11-----5-8----------8-11----------------|
A|----6-5---------4-7---------7-10------4-7---------7-10---------------------|
E|3-3-----3-3-3-6---------6-9------------------------------------------------|

Part D:

e|---------------------------------------------------------------------------|
B|---------------------------------------------------------------------------|
G|---------------------------------------------------------------------------|
D|---------------------------------------------------------------------------|
A|7-------7-8-7-------7---6-------6---6-------6------------------------------|
E|--8-5-8-------8-5-8---8---7-4-7---7---7-4-7--------------------------------|

e|---------------------------------------------------------------------------|
B|---------------------------------------------------------------------------|
G|---------------------------------------------------------------------------|
D|7-------7-8-7-------7---10---------10---13----------13---------------------|
A|--8-5-8-------8-5-8---8----11-9-11---------14-11-14------------------------|
E|---------------------------------------------------------------------------|

e|---------------------------------------------------------------------------|
B|---------------------------------------------------------------------------|
G|6-------6-7-6-------6---5-------5-6-5-------5------------------------------|
D|--7-4-7-------7-4-7---7---6-3-6-------6-3-6--------------------------------|
A|---------------------------------------------------------------------------|
E|---------------------------------------------------------------------------|

e|---------------------------------------------------------------------------|
B|---------------------------------------------------------------------------|
G|---------------------------------------------------------------------------|
D|---------------------------------------------------------------------------|
A|---------------------------------------------------------------------------|
E|---------------------------------------------------------------------------|

e|---------------------------------------------------------------------------|
B|---------------------------------------------------------------------------|
G|---------------------------------------------------------------------------|
D|---------------------------------------------------------------------------|
A|---------------------------------------------------------------------------|
E|---------------------------------------------------------------------------|

e|---------------------------------------------------------------------------|
B|---------------------------------------------------------------------------|
G|---------------------------------------------------------------------------|
D|---------------------------------------------------------------------------|
A|---------------------------------------------------------------------------|
E|---------------------------------------------------------------------------|

e|---------------------------------------------------------------------------|
B|---------------------------------------------------------------------------|
G|---------------------------------------------------------------------------|
D|---------------------------------------------------------------------------|
A|---------------------------------------------------------------------------|
E|---------------------------------------------------------------------------|

e|---------------------------------------------------------------------------|
B|---------------------------------------------------------------------------|
G|---------------------------------------------------------------------------|
D|---------------------------------------------------------------------------|
A|---------------------------------------------------------------------------|
E|---------------------------------------------------------------------------|

e|---------------------------------------------------------------------------|
B|---------------------------------------------------------------------------|
G|---------------------------------------------------------------------------|
D|---------------------------------------------------------------------------|
A|---------------------------------------------------------------------------|
E|---------------------------------------------------------------------------|

e|---------------------------------------------------------------------------|
B|---------------------------------------------------------------------------|
G|---------------------------------------------------------------------------|
D|---------------------------------------------------------------------------|
A|---------------------------------------------------------------------------|
E|---------------------------------------------------------------------------|

e|---------------------------------------------------------------------------|
B|---------------------------------------------------------------------------|
G|---------------------------------------------------------------------------|
D|---------------------------------------------------------------------------|
A|---------------------------------------------------------------------------|
E|---------------------------------------------------------------------------|



| /  slide up
| \  slide down
| h  hammer-on
| p  pull-off
| ~  vibrato
| +  harmonic
| x  Mute note
===============================================================================
Tap to rate this tab
# A B C D E F G H I J K L M N O P Q R S T U V W X Y Z