Song name
# A B C D E F G H I J K L M N O P Q R S T U V W X Y Z

The Forsaken - Collector Of Thoughts tab

-------------------------------------------------------------------------------
               COLLECTOR OF THOUGHTS - The Forsaken
-------------------------------------------------------------------------------
Tabbed by: beerslayer420
Email: sk8pantera@yahoo.com

only guitar #1 tabs. most of the song i think

Tuning: CFBbD#G#C

Part A:

e|---------------------------------------------------------------------------|
B|---------------------------------------------------------------------------|
G|---------------------------------------------------------------------------|
D|----9------8------444455554444------9------8--999955554444-----------------|
A|----7------6--7777------------------7------6--------------7777-------------|
E|0000---0000---------------------0000---0000--------------------------------|

e|---------------------------------------------------------------------------|
B|---------------------------------------------------------------------------|
G|---------------------------------------------------------------------------|
D|----9------8------444455554444------9------8-------------------------------|
A|----7------6--7777------------------7------6--7777-------------------------|
E|0000---0000---------------------0000---0000-------888877775555-------------|

Part B intro:

e|---------------------------------------------------------------------------|
B|---------------------------------------------------------------------------|
G|---------------------------------------------------------------------------|
D|----5------4------3----------8------5------4--------7----------------------|
A|00003--00002--00001--000000006--00003--00002--6-5-0---6-5-3-5--------------|
E|---------------------------------------------------------------------------|

e|---------------------------------------------------------------------------|
B|---------------------------------------------------------------------------|
G|----------------------------9----------------------------------------------|
D|----5------4------3---------7------5------4--------------------------------|
A|00003--00002--00001--0000000---00003--00002--2-2--2--2---------------------|
E|---------------------------------------------3-3--3--3---------------------|

Play Part A:

Part B:

e|---------------------------------------------------------------------------|
B|---------------------------------------------------------------------------|
G|---------------------------------------------------------------------------|
D|----5------4------3----------8------5------4--------7----------------------|
A|00003--00002--00001--000000006--00003--00002--6-5-0---6-5-3-5--------------|
E|---------------------------------------------------------------------------|

e|---------------------------------------------------------------------------|
B|---------------------------------------------------------------------------|
G|----------------------------9----------------------------------------------|
D|----5------4------3---------7------5------4----999955554444----------------|
A|00003--00002--00001--0000000---00003--00002--2-------------7777------------|
E|---------------------------------------------------------------------------|

Part C:

e|---------------------------------------------------------------------------|
B|---------------------------------------------------------------------------|
G|---------------------------------------------------------------------------|
D|--------9-------------------------9----------------------------------------|
A|------7---7---------10-9--------7---7--------------------------------------|
E|0-000-------0-8-7-0-------0-000-------0-8-7-0-3-5--------------------------|

e|---------------------------------------------------------------------------|
B|---------------------------------------------------------------------------|
G|---------------------------------------------------------------------------|
D|--------9-------------------------9----------------------------------------|
A|------7---7---------10-9--------7---7--------------------------------------|
E|0-000-------0-8-7-0-------0-000-------8-7-0-3------------------------------|

Part D:

e|---------------------------------------------------------------------------|
B|---------------------------------------------------------------------------|
G|---------------------------------------------------------------------------|
D|-------------7-------------------------------------------------------------|
A|------10-----------10-----------10-----9-----7-----------------------------|
E|0-000----0-0---0-0----0-0-0-000----0-0---0-0---0-0-------------------------|

e|---------------------------------------------------------------------------|
B|---------------------------------------------------------------------------|
G|---------------------------------------------------------------------------|
D|------------------------------------6-4---4--------------------------------|
A|------6---------6-7-4---6---------------7---7-6----------------------------|
E|4-444-4---4-444-----------4-444-444----------------------------------------|

e|---------------------------------------------------------------------------|
B|---------------------------------------------------------------------------|
G|---------------------------------------------------------------------------|
D|------7-----6-----7------9-----7-----6-----7-------------------------------|
A|5-555---555---555---555----555---555---555---------------------------------|
E|---------------------------------------------------------------------------|

e|---------------------------------------------------------------------------|
B|---------------------------------------------------------------------------|
G|-----------------6---------------------------------------------------------|
D|------6--------------------------------------------------------------------|
A|4-444-4----4-444-----4-444-4-3--------2------------------------------------|
E|-------------------------------3-2-----------------------------------------|

Play Part A:
Play Part B:
Play Part C:

Then play this once:

e|---------------------------------------------------------------------------|
B|---------------------------------------------------------------------------|
G|---------------------------------------------------------------------------|
D|4--------------------------------------------------------------------------|
A|2--5--4--3-----------------------------------------------------------------|
E|---3--2--1-----------------------------------------------------------------|

Part E:

e|---------------------------------------------------------------------------|
B|---------------------------------------------------------------------------|
G|---------------------------------------------------------------------------|
D|---4----------3------------------------------------------------------------|
A|---2--5-4-3-2-1--5-4-2--333333333---2222222222-----------------------------|
E|0-----3-2-1-0----3-2-0------------1----------------------------------------|

e|---------------------------------------------------------------------------|
B|---------------------------------------------------------------------------|
G|---------------------------------------------------------------------------|
D|---------------------------------------------------------------------------|
A|---3--6--5--------------2h5p2h5p3h6p3h6------------------------------------|
E|0--1--4--3--1-3-4-1-3-4----------------------------------------------------|

Part F:

e|---------------------------------------------------------------------------|
B|---------------------------------------------------------------------------|
G|---------------------------------------------------------------------------|
D|----4--3--------------7--6-------------------------------------------------|
A|----2--1--2-4-5-4-3-2-5--4------7777----6666-------------1-----------------|
E|0-0-------0-2-3-2-1-0-------0000----8888----7777-0-2-3-0-------------------|

e|---------------------------------------------------------------------------|
B|---------------------------------------------------------------------------|
G|---------------------------------------------------------------------------|
D|----4--3--------------7--6----------------------999955558888---------------|
A|----2--1--2-4-5-4-3-2-5--4------7777----6666-------------------------------|
E|0-0-------0-2-3-2-1-0-------0000----8888----7777---------------------------|

Part F cont:
e|---------------------------------------------------------------------------|
B|---------------------------------------------------------------------------|
G|---------17--16------------------------------------------------------------|
D|14--13-----18--------------------------------------------------------------|
A|--15--14-------------------------------------------------------------------|
E|---------------------------------------------------------------------------|

Part G:

e|---------------------------------------------------------------------------|
B|---------------------------------------------------------------------------|
G|---------------------------------------------------------------------------|
D|------------------------------------666666666----5555----------------------|
A|----22222222----1111-------------------------7777----77776666--------------|
E|0000--------3333----0000222233334444-------------------------7777----------|

e|---------------------------------------------------------------------------|
B|---------------------------------------------------------------------------|
G|---------------------------------------------------------------------------|
D|-----------------------------------------------------4444----5555----------|
A|----222222222----1111----------------55555555----4444----5555--------------|
E|0000---------3333----0000222244443333--------6666--------------------------|

Play Part A:
Play Part B:
Play Part C:
Play Part D:
Play Part G:
Play Part F:

Part H:

e|---------------------------------------------------------------------------|
B|---------------------------------------------------------------------------|
G|---------------------------------------------------------------------------|
D|---4----------3------------------------------------------------------------|
A|---2--5-4-3-2-1--5-4-2--333333333---2222222222-----------------------------|
E|0-----3-2-1-0----3-2-0------------1----------------------------------------|

e|---------------------------------------------------------------------------|
B|---------------------------------------------------------------------------|
G|---------------------------------------------------------------------------|
D|---------------------------------------------------------------------------|
A|---3--6--5--2h5p2h3p6h3p2h5p2h3p6h3p2--------------------------------------|
E|0--1--4--3-----------------------------------------------------------------|

e|---------------------------------------------------------------------------|
B|---------------------------------------------------------------------------|
G|---------------------------------------------------------------------------|
D|10--12--10--9---5----------------------------------------------------------|
A|7---9---7---6---2----------------------------------------------------------|
E|---------------------------------------------------------------------------|

e|---------------------------------------------------------------------------|
B|---------------------------------------------------------------------------|
G|---------------------------------------------------------------------------|
D|---------------------------------------------------------------------------|
A|---------------------------------------------------------------------------|
E|000000000000000000000000000000000000000000000------------------------------|

e|---------------------------------------------------------------------------|
B|---------------------------------------------------------------------------|
G|---------------------------------------------------------------------------|
D|---------------------------------------------------------------------------|
A|---------------------------------------------------------------------------|
E|222222222222222222222222222222222222222222222222---------------------------|

e|---------------------------------------------------------------------------|
B|---------------------------------------------------------------------------|
G|---------------------------------------------------------------------------|
D|-2-------------------------------------------------------------------------|
A|-2-------------------------------------------------------------------------|
E|-0-------------------------------------------------------------------------

| /  slide up
| \  slide down
| h  hammer-on
| p  pull-off
| ~  vibrato
| +  harmonic
| x  Mute note
===============================================================================
Tap to rate this tab
# A B C D E F G H I J K L M N O P Q R S T U V W X Y Z