Song name
# A B C D E F G H I J K L M N O P Q R S T U V W X Y Z

The Forsaken - Human Chapter X tab

The Forsaken
Human chapter X
from album Arts of desolation

/ - Slide up to
\ - Slide down to 
h  Hammer on
p  Pull off
~ - Artificial harmonic
 )
/| - Bend 
Tuning  1:B 2:E 3:A 4:D 5:F# 6:B

Riff 1 (Solo on rounds 3 and 4)
||------------------------------------|---------------------------------|
||------------------------------------|---------------------------------|
||------------------------------------|--------------------2------------|
||---2-------------2------2222----1111|--2-----------------4-----5---4--|
||---2-------------2----------3333----|--2-----------------3-----2---2--|
||-0-0---0-320-0-0-0--0-0-------------|0-0---0-320-530-750-----0---0----|

Break

Riff 1

Riff 2
Both
|------------------------------------|------------------------------|
|------------------------------------|------------------------------|
|------------------------------------|------------------------------|
|--------------------9-7-------------|------------------------------|
|---7----6----7---------10-9-7-6-----|---7----6-------------------6-|
|-00---00---00---008-------------8-7-|-00---00---008--007--007--00--|

Guit I
|------------------------------------|------------------------------|
|------------------------------------|------------------------------|
|------------------------------------|------------------------------|
|--------------------9-7-------------|------------------------------|
|---7----6----7---------10-9-7-6-----|---7----6-------------------6-|
|-00---00---00---008-------------8-7-|-00---00---008--007--007--00--|
Guit II                                                             |
|------------------------------------|------------------------------|
|------------------------------------|------------------------------|
|------------------------------------|------------------------------|
|--------------------9-7-------------|------------------------------|
|---10---9----10---7----10-9-7-6-----|---10---9----7----6----6----9-|
|-00---00---00---00--------------8-7-|-00---00---00---00---00---00--|

Riff 3
Guit I
|---------------------------------|---------------------------------|
|---------------------------------|---------------------------------|
|---------------------------------|---------------------------------|
|---------------------------------|---------------------------------|
|---------------------------------|77777777777777776666666666666666-|
|-44444444444444446666666677777777|---------------------------------|
Guit II                                                             |
|---------------------------------|---------------------------------|
|---------------------------------|---------------------------------|
|---------------------------------|4444444433333333-----------------|
|-----------------5555555566666666|----------------6666666655555555-|
|---------66666666----------------|---------------------------------|
|-44444444------------------------|---------------------------------|

Guit I
|---------------------------------|---------------------------------|
|---------------------------------|---------------------------------|
|---------------------------------|---------------------------------|
|---------------------------------|---------------------------------|
|---------------------------------|77777777777777776666666666666666-|
|-44444444444444446666666677777777|---------------------------------|
Guit II                                                             |
|---------------------------------|---------------------------------|
|---------------------------------|---------------------------------|
|---------------------------------|---------------------------------|
|---------------------------------|---------------------------------|
|-----------------4444444466666666|4444444444444444-----------------|
|-4444444477777777----------------|----------------7777777766666666-|

Guit I
|---------------------------------|---------------------------------|
|---------------------------------|---------------------------------|
|---------------------------------|---------------------------------|
|---------------------------------|---------------------------------|
|---------------------------------|77777777777777776666666666666666-|
|-44444444444444446666666677777777|---------------------------------|
Guit II                                                             |
|---------------------------------|---------------------------------|
|---------------------------------|---------------------------------|
|---------------------------------|4444444433333333-----------------|
|-----------------5555555566666666|----------------6666666655555555-|
|---------66666666----------------|---------------------------------|
|-44444444------------------------|---------------------------------|

Guit I
|---------------------------------|---------------------------------|
|---------------------------------|---------------------------------|
|---------------------------------|---------------------------------|
|---------------------------------|---------------------------------|
|---------------------------------|77777777777777775555555522222222-|
|-44444444444444446666666677777777|---------------------------------|
Guit II                                                             |
|---------------------------------|---------------------------------|
|---------------------------------|---------------------------------|
|---------------------------------|---------------------------------|
|-------------------------66666666|555555554444444444444444---------|
|-----------------66666666--------|------------------------66666666-|
|-4444444477777777----------------|---------------------------------|

Riff 1

Riff 2

Final round
|------------------------------------|--------------------------------|
|------------------------------------|--------------------------------|
|------------------------------------|--------------------------------|
|--------------------9-7-------------|--------------------9-7---------|
|---7----6----7---------10-9-7-6-----|---7----6--------------10-9-7-6-|
|-00---00---00---008-------------8-7-|-00---00---008--007-------------|

|--------|
|--------|
|--------|
|-1------|
|-3-2-1--|
|---4-3--|

Riff 4
|------------------------------------|--------------------------------|
|------------------------------------|--------------------------------|
|------------------------------------|--------------------------------|
|10---------6------------------------|10---9---6------7---------------|
|-8---------4------------------------|-8---7---4------7-----7-7-7-----|
|-8---------4------------------------|-8---7---4------5-----5-5-5-----|

|------------------------------------|--------------------------------|
|------------------------------------|--------------------------------|
|------------------------------------|--------------------------------|
|10---------6------------------------|10---9---6------7---------------|
|-8---------4------------------------|-8---7---4------5-----5---5-----|
|-8---------4------------------------|-8---7---4------5-----5---5-----|

Melody line for riff 4
|----------------------------------|--------------------------------|
|--------------------)-)-------------|--------------------------------|
|---------9---------/|/|-------------|---------9----------------------|
|---10-11---------10-----------------|---10-11--11-10-7---------------|
|-8----------------------------------|-8------------------------------|
|------------------------------------|--------------------------------|

|----------------------------------|--------------------------------|
|--------------------)-)-------------|-----------------------10\------|
|---------9---------/|/|-------------|---------9----------------------|
|---10-11---------10-----------------|---10-11--11-10-7---------------|
|-8----------------------------------|-8------------------------------|
|------------------------------------|--------------------------------|

Riff 5
Both
|-------------------------|---------------------------------|
|-------------------------|---------------------------------|
|-------------------------|---------------------------------|
|-------------------------|---------------------------------|
|-------5-4-----7-6---5---|-------5-4-----7-6-5h6p5h6p5h6p5-|
|-0-3-6-----5/8-----7---6-|-0-3-6-----5/8-------------------|

Guit I
|-------------------------|---------------------------------|
|-------------------------|---------------------------------|
|-------------------------|---------------------------------|
|-------------------------|---------------------------------|
|-------5-4-----7-6---5---|-------5-4-----7-6-5h6p5h6p5h6p5-|
|-0-3-6-----5/8-----7---6-|-0-3-6-----5/8-------------------|
Guit II                                                     |
|-------------------------|---------------------------------|
|-------------------------|---------------------------------|
|-------------------------|---------------------------------|
|-------3-2-----5-4---3---|-------3-2-----5-4-3h4p3h4p3h4p3-|
|---1-4-----3/6-----5---4-|---1-4-----3/6-------------------|
|-0-----------------------|-0-------------------------------|

Solo
|------------------------------------|--------------------------------|
|------------------------------------|--------------------------------|
|------------------------------------|--------------------------------|
|10---------6------------------------|10---9---6------7---------------|X2
|-8---------4------------------------|-8---7---4------7-----7-7-7-----|
|-8---------4------------------------|-8---7---4------5-----5-5-5-----|

Riff 5 (solo)

Riff 5

Riff 3

Riff 1

Riff 2

Riff 6
Guit I
|----------------------------|----------------------------|
|----------------------------|----------------------------|
|----9----8----9----8---5--4-|----9----8----9----8---5--4-|
|----------------------------|----------------------------|
|----7----6----7----6---3--2-|----7----6----7----6---3--2-|
|-00---00---00---00----------|-00---00---00---00----------|
Guit II                                                   |
|----------------------------|----------------------------|
|----------------------------|----------------------------|
|---12---11---12---11---9--8-|---12---11----5----4--------|
|----------------------------|-----------------------7--5-|
|---10----9---10----9---7--6-|---10----9----3----2--------|
|-00---00---00---00----------|-00---00---00---00-----5--3-|

Finish
|-------------------||
|-------------------||
|-------------------||
|---2-------------2-||
|---2-------------2-||
|-0-0---0-320-530-0-||


Tap to rate this tab
# A B C D E F G H I J K L M N O P Q R S T U V W X Y Z