The Forsaken - Sufferance tab

---------------------------------------------------------------------
                      SUFFERANCE - Forsaken
                     GUITARIST: Sean Vukovic
---------------------------------------------------------------------
Tabbed by: Atrumluminarium

NOTES:
************************************
Tuning: standart E A D G B e
************************************
Forsaken http://www.myspace.com/forsakenmalta
************************************
link: http://www.youtube.com/watch?feature=player_profilepage&v=42PYLzWCz2Q
************************************
this is the intro and riff 1 (5 parts)
************************************
| /   slide up
| \   slide down
| h   hammer-on
| p   pull-off
| ~   vibrato
| +   harmonic
| x   Mute note
| b   Bend
| pb  Pre-bend
| br  Bend release
| pbr Pre-bend release
| brb Bend release bend
************************************

intro (repeat as many times necessary)
e|--------------------------------------------------|
B|--------------------------------------------------|
G|--------------------------------------------------|
D|--------------------------------------------------|
A|-2--2-2--2--9-8-7-6-5--2--2-2--2--9-8-7-----------|
E|-0--0-0--0--7-6-5-4-3--0--0-0--0--7-6-5-7~~~------|
      PM*                   PM*

riff pt.1 (repeat as many timed necessary)
e|----------------------------|
B|----------------------------|
G|----------------------------|
D|----------------------------|
A|-2-22-22-22-4-2-22-2-3-3----|
E|-0-00-00-00-2-0-00-0-5-5----|
   PM********   PM****

riff pt.2 (repeat as many times necessary)
e|--------------------------------|
B|--------------------------------|
G|--------------------------------|
D|--------------------------------|
A|--------------------------------|
E|-000--9~~~--000--8~~~-----------|

Repeat pt.1
Repeat pt.2

riff pt.3 (repeat as mant times necessary)
e|-----------------------------|
B|-----------------------------|
G|-----------------------------|
D|-----------------------------|
A|----0-2-1-0-2-1-0----0-2-1-3-|
E|-2-2--------------2-2--------|

riff pt.4 (repeat as many times necessary)
e|-----------------------------|
B|-----------------------------|
G|-----------------------------|
D|----0-2-1-0-2-1-0----0-2-1-3-|
A|-2-2--------------2-2--------|
E|-----------------------------|

riff pt.5
e|----------------------------------------|
B|----------------------------------------|
G|-3-2-0----------------------------------|
D|------3-2-0-----------------------------|
A|-----------3-2-0-------2--------5-4-3-2-|
E|----------------3-2-0--0--2/9\7-3-2-1-0-|
Tap to rate this tab
 
# A B C D E F G H I J K L M N O P Q R S T U V W X Y Z