Song name
# A B C D E F G H I J K L M N O P Q R S T U V W X Y Z

The Four Of Us - Voice On The Radio tab

Band:        The 4 of Us
Song:        Voice on the Radio
Album:       Heaven & Earth
Instrument:  Guitar

Tabbed By: Jarlath Burke
EMail: jarlathburke@hotmail.com

A fantastic number by this Irish band from their 2003 album Heaven & Earth.
In my opinion their best song, beautiful to listen to and play.  


Standard Tuning
Capo 6th Fret


Chords used: 

Intro/Verse/Outro
------------------
Fmaj9:      x03010 
Am7:        002010
Em/D:       xx0000


Chorus
------
Fmaj9:      x03010 
Am7:        002010
Em/D:       xx0000
C/G:        332010
Fmaj9(2):   10x010


Bridge
------
C:          032010
Gm:         355333
F:          003211  
Am:         002210



Intro
-----


    Fmaj9                Am7      Em/D     
E]--------0--------0-----------0--------0------[
B]--1--------1--------1--1--------0--------0---[
G]-----0--------0-----------0--------0---------[
D]--3--------3-----------2--------0------------[
A]---------------------------------------------[
E]---------------------------------------------[



    Fmaj9                Am7      Em/D     
E]--------0--------0-----------0--------0------[
B]--1--------1--------1--1--------0--------0---[
G]-----0--------0-----------0--------0---------[
D]--3--------3-----------2--------0------------[
A]---------------------------------------------[
E]---------------------------------------------[




Verse 1
-------

                                   We watched a

    Fmaj9                Am7      Em/D     
E]--------0--------0-----------0--------0------[
B]--1--------1--------1--1--------0--------0---[
G]-----0--------0-----------0--------0---------[
D]--3--------3-----------2--------0------------[
A]---------------------------------------------[
E]---------------------------------------------[


  Roman     candle      burn         The day the

    Fmaj9                Am7      Em/D     
E]--------0--------0-----------0--------0------[
B]--1--------1--------1--1--------0--------0---[
G]-----0--------0-----------0--------0---------[
D]--3--------3-----------2--------0------------[
A]---------------------------------------------[
E]---------------------------------------------[


   world   refused to   turn         Even a 

    Fmaj9                Am7      Em/D     
E]--------0--------0-----------0--------0------[
B]--1--------1--------1--1--------0--------0---[
G]-----0--------0-----------0--------0---------[
D]--3--------3-----------2--------0------------[
A]---------------------------------------------[
E]---------------------------------------------[


   chimp-an-zee can     learn to  act a little hu-

    Fmaj9                Am7      Em/D     
E]--------0--------0-----------0--------0------[
B]--1--------1--------1--1--------0--------0---[
G]-----0--------0-----------0--------0---------[
D]--3--------3-----------2--------0------------[
A]---------------------------------------------[
E]---------------------------------------------[


   man                              We saw a 

    Fmaj9                Am7      Em/D     
E]--------0--------0-----------0--------0------[
B]--1--------1--------1--1--------0--------0---[
G]-----0--------0-----------0--------0---------[
D]--3--------3-----------2--------0------------[
A]---------------------------------------------[
E]---------------------------------------------[


    fire-cracker fall                Among the

    Fmaj9                Am7      Em/D     
E]--------0--------0-----------0--------0------[
B]--1--------1--------1--1--------0--------0---[
G]-----0--------0-----------0--------0---------[
D]--3--------3-----------2--------0------------[
A]---------------------------------------------[
E]---------------------------------------------[


   market   shops  and  stalls      And then we

    Fmaj9                Am7      Em/D     
E]--------0--------0-----------0--------0------[
B]--1--------1--------1--1--------0--------0---[
G]-----0--------0-----------0--------0---------[
D]--3--------3-----------2--------0------------[
A]---------------------------------------------[
E]---------------------------------------------[


   wondered  if it all was       just an illusion

    Fmaj9                Am7      Em/D     
E]--------0--------0-----------0--------0------[
B]--1--------1--------1--1--------0--------0---[
G]-----0--------0-----------0--------0---------[
D]--3--------3-----------2--------0------------[
A]---------------------------------------------[
E]---------------------------------------------[




Chorus 1
--------
                                            Will

    Fmaj9                Am7      Em/D     
E]--------0--------0-----------0--------0------[
B]--1--------1--------1--1--------0--------0---[
G]-----0--------0-----------0--------0---------[
D]--3--------3-----------2--------0------------[
A]---------------------------------------------[
E]---------------------------------------------[


   time roll back    again           When I 

    Fmaj9                Am7      Em/D     
E]--------0--------0-----------0--------0------[
B]--1--------1--------1--1--------0--------0---[
G]-----0--------0-----------0--------0---------[
D]--3--------3-----------2--------0------------[
A]---------------------------------------------[
E]---------------------------------------------[


  hear your voice on the radio              Will

    Fmaj9                Am7      Em/D     
E]--------0--------0-----------0--------0------[
B]--1--------1--------1--1--------0--------0---[
G]-----0--------0-----------0--------0---------[
D]--3--------3-----------2--------0------------[
A]---------------------------------------------[
E]---------------------------------------------[


   time roll back    again            When I

    Fmaj9                Am7      Em/D     
E]--------0--------0-----------0--------0------[
B]--1--------1--------1--1--------0--------0---[
G]-----0--------0-----------0--------0---------[
D]--3--------3-----------2--------0------------[
A]---------------------------------------------[
E]---------------------------------------------[


  see the smoke stack fall                  Will
  
    Fmaj9                Am7      Em/D     
E]--------0--------0-----------0--------0------[
B]--1--------1--------1--1--------0--------0---[
G]-----0--------0-----------0--------0---------[
D]--3--------3-----------2--------0------------[
A]---------------------------------------------[
E]---------------------------------------------[


   time roll back    again            When the

    Fmaj9                C/G           
E]--------0--------0-----------0--------0------[
B]--1--------1--------1--1--------1--------1---[
G]-----0--------0-----------0--------0---------[
D]---------------------------------------------[
A]--0--------0---------------------------------[
E]-----------------------3--------3------------[


   sun collides into Jupiter           Don't you   

    Fmaj9(2)                          
E]--------0--------0-----------0--------0------[
B]--1--------1--------1--1--------1--------1---[
G]-----0--------0-----------0--------0---------[
D]---------------------------------------------[
A]---------------------------------------------[
E]--1--------1-----------1--------1------------[


   know I'd follow you  anywhere      

    Fmaj9                Fmaj9(2)         
E]--------0--------0-----------0--------0------[
B]--1--------1--------1--1--------1--------1---[
G]-----0--------0-----------0--------0---------[
D]---------------------------------------------[
A]--0--------0---------------------------------[
E]-----------------------1--------1------------[




verse 2
-------

                                    You get so

    Fmaj9                Am7      Em/D     
E]--------0--------0-----------0--------0------[
B]--1--------1--------1--1--------0--------0---[
G]-----0--------0-----------0--------0---------[
D]--3--------3-----------2--------0------------[
A]---------------------------------------------[
E]---------------------------------------------[


   tired of be - ing    told        That it's your

    Fmaj9                Am7      Em/D     
E]--------0--------0-----------0--------0------[
B]--1--------1--------1--1--------0--------0---[
G]-----0--------0-----------0--------0---------[
D]--3--------3-----------2--------0------------[
A]---------------------------------------------[
E]---------------------------------------------[


   future that can be   sold       Until the   

    Fmaj9                Am7      Em/D     
E]--------0--------0-----------0--------0------[
B]--1--------1--------1--1--------0--------0---[
G]-----0--------0-----------0--------0---------[
D]--3--------3-----------2--------0------------[
A]---------------------------------------------[
E]---------------------------------------------[

  
    moment stops you cold and you hear your heart

    Fmaj9                Am7      Em/D     
E]--------0--------0-----------0--------0------[
B]--1--------1--------1--1--------0--------0---[
G]-----0--------0-----------0--------0---------[
D]--3--------3-----------2--------0------------[
A]---------------------------------------------[
E]---------------------------------------------[


   beating

    Fmaj9                Am7      Em/D     
E]--------0--------0-----------0--------0------[
B]--1--------1--------1--1--------0--------0---[
G]-----0--------0-----------0--------0---------[
D]--3--------3-----------2--------0------------[
A]---------------------------------------------[
E]---------------------------------------------[


  Now we're fighting for every breath that we take

    Fmaj9                Am7      Em/D     
E]--------0--------0-----------0--------0------[
B]--1--------1--------1--1--------0--------0---[
G]-----0--------0-----------0--------0---------[
D]--3--------3-----------2--------0------------[
A]---------------------------------------------[
E]---------------------------------------------[


   We're looking for all the friends we can make

    Fmaj9                Am7      Em/D     
E]--------0--------0-----------0--------0------[
B]--1--------1--------1--1--------0--------0---[
G]-----0--------0-----------0--------0---------[
D]--3--------3-----------2--------0------------[
A]---------------------------------------------[
E]---------------------------------------------[


   And we survive with  every    hand that we

    Fmaj9                Am7      Em/D     
E]--------0--------0-----------0--------0------[
B]--1--------1--------1--1--------0--------0---[
G]-----0--------0-----------0--------0---------[
D]--3--------3-----------2--------0------------[
A]---------------------------------------------[
E]---------------------------------------------[


   shake

    Fmaj9                Am7      Em/D     
E]--------0--------0-----------0--------0------[
B]--1--------1--------1--1--------0--------0---[
G]-----0--------0-----------0--------0---------[
D]--3--------3-----------2--------0------------[
A]---------------------------------------------[
E]---------------------------------------------[



Chorus 2
--------
                                            
Will time roll back    again           When I 

    Fmaj9                Am7      Em/D     
E]--------0--------0-----------0--------0------[
B]--1--------1--------1--1--------0--------0---[
G]-----0--------0-----------0--------0---------[
D]--3--------3-----------2--------0------------[
A]---------------------------------------------[
E]---------------------------------------------[


  hear your voice on the radio              Will

    Fmaj9                Am7      Em/D     
E]--------0--------0-----------0--------0------[
B]--1--------1--------1--1--------0--------0---[
G]-----0--------0-----------0--------0---------[
D]--3--------3-----------2--------0------------[
A]---------------------------------------------[
E]---------------------------------------------[


   time roll back    again            When I

    Fmaj9                Am7      Em/D     
E]--------0--------0-----------0--------0------[
B]--1--------1--------1--1--------0--------0---[
G]-----0--------0-----------0--------0---------[
D]--3--------3-----------2--------0------------[
A]---------------------------------------------[
E]---------------------------------------------[


  see the smoke stack fall                  Will
  
    Fmaj9                Am7      Em/D     
E]--------0--------0-----------0--------0------[
B]--1--------1--------1--1--------0--------0---[
G]-----0--------0-----------0--------0---------[
D]--3--------3-----------2--------0------------[
A]---------------------------------------------[
E]---------------------------------------------[


   time roll back    again            When the

    Fmaj9                C/G           
E]--------0--------0-----------0--------0------[
B]--1--------1--------1--1--------1--------1---[
G]-----0--------0-----------0--------0---------[
D]---------------------------------------------[
A]--0--------0---------------------------------[
E]-----------------------3--------3------------[


   sun collides into Jupiter           Don't you   

    Fmaj9(2)                          
E]--------0--------0-----------0--------0------[
B]--1--------1--------1--1--------1--------1---[
G]-----0--------0-----------0--------0---------[
D]---------------------------------------------[
A]---------------------------------------------[
E]--1--------1-----------1--------1------------[


   know I'd follow you  anywhere

    Fmaj9                Fmaj9(2)             
E]--------0--------0-----------0--------0------[
B]--1--------1--------1--1--------1--------1---[
G]-----0--------0-----------0--------0---------[
D]---------------------------------------------[
A]--0--------0---------------------------------[
E]-----------------------1--------1------------[


             And I can't

    Fmaj9(2)             
E]--------0--------0---------------------------[
B]--1--------1--------1------------------------[
G]-----0--------0------------------------------[
D]---------------------------------------------[
A]---------------------------------------------[
E]--1--------1---------------------------------[



Bridge
------

   find  a  way    to   move     my - self  

    C                    Gm
E]--------0--------0-----------3--------3------[
B]--1--------1--------1--3--------3--------3---[
G]-----0--------0-----------3--------3---------[
D]-----------------------5--------5------------[
A]--3--------3---------------------------------[
E]---------------------------------------------[


  above        this               And  I  can't

    F                    Am
E]--------1--------1-----------0--------0------[
B]--1--------1--------1--1--------1--------1---[
G]-----2--------2-----------2--------2---------[
D]--3--------3-----------2--------2------------[
A]---------------------------------------------[
E]---------------------------------------------[


   find  a  way    to   see       whats    be- 

    C                    Gm
E]--------0--------0-----------3--------3------[
B]--1--------1--------1--3--------3--------3---[
G]-----0--------0-----------3--------3---------[
D]-----------------------5--------5------------[
A]--3--------3---------------------------------[
E]---------------------------------------------[


  fore        us                      All  I 

    F                    Am
E]--------1--------1-----------0--------0------[
B]--1--------1--------1--1--------1--------1---[
G]-----2--------2-----------2--------2---------[
D]--3--------3-----------2--------2------------[
A]---------------------------------------------[
E]---------------------------------------------[

 
    know is it's  too  late to close   the

    C                    Gm
E]--------0--------0-----------3--------3------[
B]--1--------1--------1--3--------3--------3---[
G]-----0--------0-----------3--------3---------[
D]-----------------------5--------5------------[
A]--3--------3---------------------------------[
E]---------------------------------------------[

 
   door

    F                    Am
E]--------1--------1-----------0--------0------[
B]--1--------1--------1--1--------1--------1---[
G]-----2--------2-----------2--------2---------[
D]--3--------3-----------2--------2------------[
A]---------------------------------------------[
E]---------------------------------------------[



    Fmaj9                Am7      Em/D     
E]--------0--------0-----------0--------0------[
B]--1--------1--------1--1--------0--------0---[
G]-----0--------0-----------0--------0---------[
D]--3--------3-----------2--------0------------[
A]---------------------------------------------[
E]---------------------------------------------[



    Fmaj9                Am7      Em/D     
E]--------0--------0-----------0--------0------[
B]--1--------1--------1--1--------0--------0---[
G]-----0--------0-----------0--------0---------[
D]--3--------3-----------2--------0------------[
A]---------------------------------------------[
E]---------------------------------------------[




Chorus 3
--------

Will time roll back    again           When I 

    Fmaj9                Am7      Em/D     
E]--------0--------0-----------0--------0------[
B]--1--------1--------1--1--------0--------0---[
G]-----0--------0-----------0--------0---------[
D]--3--------3-----------2--------0------------[
A]---------------------------------------------[
E]---------------------------------------------[


  hear your voice on the radio              Will

    Fmaj9                Am7      Em/D     
E]--------0--------0-----------0--------0------[
B]--1--------1--------1--1--------0--------0---[
G]-----0--------0-----------0--------0---------[
D]--3--------3-----------2--------0------------[
A]---------------------------------------------[
E]---------------------------------------------[


   time roll back    again            When I

    Fmaj9                Am7      Em/D     
E]--------0--------0-----------0--------0------[
B]--1--------1--------1--1--------0--------0---[
G]-----0--------0-----------0--------0---------[
D]--3--------3-----------2--------0------------[
A]---------------------------------------------[
E]---------------------------------------------[


  see the smoke stack fall                  Will
  
    Fmaj9                Am7      Em/D     
E]--------0--------0-----------0--------0------[
B]--1--------1--------1--1--------0--------0---[
G]-----0--------0-----------0--------0---------[
D]--3--------3-----------2--------0------------[
A]---------------------------------------------[
E]---------------------------------------------[


   time roll back    again            When the

    Fmaj9                C/G           
E]--------0--------0-----------0--------0------[
B]--1--------1--------1--1--------1--------1---[
G]-----0--------0-----------0--------0---------[
D]---------------------------------------------[
A]--0--------0---------------------------------[
E]-----------------------3--------3------------[


   sun collides into Jupiter           Don't you   

    Fmaj9(2)                          
E]--------0--------0-----------0--------0------[
B]--1--------1--------1--1--------1--------1---[
G]-----0--------0-----------0--------0---------[
D]---------------------------------------------[
A]---------------------------------------------[
E]--1--------1-----------1--------1------------[


   know I'd follow you  anywhere      

    Fmaj9                Fmaj9(2)         
E]--------0--------0-----------0--------0------[
B]--1--------1--------1--1--------1--------1---[
G]-----0--------0-----------0--------0---------[
D]---------------------------------------------[
A]--0--------0---------------------------------[
E]-----------------------1--------1------------[


    Fmaj9(2)             
E]--------0--------0---------------------------[
B]--1--------1--------1------------------------[
G]-----0--------0------------------------------[
D]---------------------------------------------[
A]---------------------------------------------[
E]--1--------1---------------------------------[



Outro
-----


    Fmaj9                Am7      Em/D     
E]--------0--------0-----------0--------0------[
B]--1--------1--------1--1--------0--------0---[
G]-----0--------0-----------0--------0---------[
D]--3--------3-----------2--------0------------[
A]---------------------------------------------[
E]---------------------------------------------[



    Fmaj9                Am7      Em/D     
E]--------0--------0-----------0--------0------[
B]--1--------1--------1--1--------0--------0---[
G]-----0--------0-----------0--------0---------[
D]--3--------3-----------2--------0------------[
A]---------------------------------------------[
E]---------------------------------------------[


    Fmaj9    
E]---------------------------------------------[
B]--1------------------------------------------[
G]---------------------------------------------[
D]--3------------------------------------------[
A]---------------------------------------------[
E]---------------------------------------------[

Tap to rate this tab
# A B C D E F G H I J K L M N O P Q R S T U V W X Y Z