Song name
# A B C D E F G H I J K L M N O P Q R S T U V W X Y Z

The Frank And Walters - Fight tab

"Fight" - The Frank and Walters (Acoustic Version)

www.frankandwalters.net


Intro:
e--------------------------------------|
b-------13----12-----------------------|
g----12----12----12--14--12--12--9--10-| x a few
d--------------------------------------|
a--------------------------------------|
e--------------------------------------|

e------------------------------------------------|
b------------------------------------------------|
g--12--12--12--12--12--12--12--14--12--12--9--10-|
d------------------------------------------------|
a------------------------------------------------|
e------------------------------------------------|

vERSE 1
C                  Am
Walk out into the sunlight
        G                   F
Itís a new day, itís a new life
C                   Am
Sink back into the moment
           G                 F
Feel the sunshine, feel the sunshine


Youíve done your time
For all your crimes
         C                  G
And you know, youíre free to go
F
donít think twice
Youíve paid the price
   G           F           G
Now go, címon now go, címon now go

e------------------------------------------------|
b------------------------------------------------|
g--12--12--12--12--12--12--12--14--12--12--9--10-|
d------------------------------------------------|
a------------------------------------------------|
e------------------------------------------------|

CHORUS

              C        G
Youíve got to fight, stand up straight
Am                    G                       F     C  G
Look em in the eyes Ďcause you deserve to be happy
             C             G
For goodness sake, youíve made your mistakes
      Am                     G                   F     C  G
donít beat yourself up Ďcause you deserve to be happy


Please donít wait any longer
Any longer, any longer
You wont feel any stronger
Any stronger, any stronger

Youíve done your time
For all your crimes
And you know, youíre free to go
donít think twice
Youíve paid the price
Now go, címon now go, címon now go

Youíve got to fight, stand up straight
Look em in the eyes Ďcause you deserve to be happy
For goodness sake, youíve made your mistakes
donít beat yourself up Ďcause you deserve to be happy

Fight, stand up straight,
Look em in the eye Ďcause you deserve to be happier
For goodness sake, youíve made your mistakes
donít beat yourself up Ďcause you deserve to be happier.....

Sig Doherty, Derry

www.indiedelights.com
Tap to rate this tab
# A B C D E F G H I J K L M N O P Q R S T U V W X Y Z