Song name
# A B C D E F G H I J K L M N O P Q R S T U V W X Y Z

The Frank And Walters - Time We Said Goodnight tab

Help us improve GuitareTab! Take a short survey!
TIME WE SAID GOODNIGHT - The Frank and Walters
tabbed by emmett.osullivan37@mail.dcu.ie
www.thefrankandwalters.ie
www.frankandwalters.net

 
Chords Used:
Am:    	5 7 7 5 5 5     	G:     	 3 5 5 4 3 3
F:  	1 3 3 2 1 1	        C:   	 x 3 5 5 5 3

	
GUITAR PARTS

lead x
e|---------------------------------------------|
B|-------1----------1----------1---------1-----|
G|---0----------0------------------------------|
D|-------------------------0----------0--------|
A|-3---3------3---3------3---3------3---3------|
E|---------------------------------------------|


lead y
e|--------------------------|
B|-1-0--1-0--1--1-0--1-0--1-|
G|--------------------------|
D|--------------------------|
A|--------------------------|
E|--------------------------|


lead z

e|---1------1--1--0-|
B|-1-1----1-1--1--1-|
G|---0------0--0--0-|
D|------------------|
A|------------------|
E|------------------|


(Chorus Lead)]

e|-x--x-x--x-x-x--x-x--x-x--x-x--x--x--x--x--x--x--x--x--|
B|-x--x-x--x-x-x--x-x--x-x--x-x--x--x--x--x--x--x--x--x--|
G|-5--5-5--5-5/7--7-7--7-7--7/10 10-10-10-10-10-10-10-10-|
D|-x--x-x--x-x-x--x-x--x-x--x-x--x--x--x--x--x--x--x--x--|
A|-3--3-3--3-3/5--5-5--5-5--5/8--8--8--8--8--8--8--8--8--|
E|-x--x-x--x-x-x--x-x--x-x--x-x--x--x--x--x--x--x--x--x--|


TIME WE SAID GOODNIGHT- The Frank and Walters

(w/ lead x)
It's time we said goodnight
To all the love inside
You said that you would call me up and maybe
We go out for a drive

(w/lead x)
Well I've been up and down
And I've been pulled around
And I've been down this way too many times
And I've been past the limit
And I must admit it
That I really thought that it was fine
(followed by lead y)


(w/lead x)
It started out last year
I thought that it was clear
I thought that it would last forever
But I guess you didn't care


(w/lead x)
(w/lead z)
Now I've been up all night
Thinking wrong was right
Cause I refuse to see that it was so
You know you just deceived me
When you tried to please me
With a person that I didn't know
(w/lead y)




(w/Chorus Lead)
Am            G               F
When beauty becomes more than life itself
       Am            G               F 
It was written in between the simple things you said
      Am                 G            F
And I hoped that I would always be in love with you
      Am                 G            F
Yes I hoped that I would always be in love with you
               G
And that you'd stay



(w/lead x)
You said to stay the night
To have have another try
You'd lure me with your sense of Eden
Then you'd keep me there on trial


(w/lead x)
(w/lead z)
Well I've been up and down
And I've been pulled around
And I've been down this way too many times
And I've been past the limit
And I must admit it
That I really thought that it was fine
(followed be lead y)




(w/Chorus Lead)
Am            G               F
When beauty becomes more than life itself
       Am            G               F 
It was written in between the simple things you said
      Am                 G            F
And I hoped that I would always be in love with you
      Am                 G            F
Yes I hoped that I would always be in love with you
               G
And that you'd stay



(w/lead x)
(w/Chorus Lead)
It's time we said goodnight
To all the love inside
You said that you would call me up and maybe
We go out for a drive

Well I've been up and down
And I've been pulled around
And I've been down this way too many times
And I've been past the limit
And I must admit it
That I really thought that it was fine
 
Related for Time We Said Goodnight tab