Song name
# A B C D E F G H I J K L M N O P Q R S T U V W X Y Z

The Frantic - Fast Girl tab

This is the lead guitar part. Listen for timings

Intro thingy:
e|-----------------------------------------------------------------------------|
B|-7s9~~~10~s12----------------------------------------------------------------|
G|-----------------------------------------------------------------------------|
D|-----------------------------------------------------------------------------|
A|-----------------------------------------------------------------------------|
E|-----------------------------------------------------------------------------|

Follow-up to intro thingy
e|------------------------------------------------------------------------------------|
B|-10h12121212121212-10h12121212121212-10h12121212121212-10-9-10-9-10-9-7-5-----------|
G|------------------------------------------------------------------------------------|
D|------------------------------------------------------------------------------------|
A|------------------------------------------------------------------------------------|
E|------------------------------------------------------------------------------------|

e|---------------------------------------------------------------------------------|
B|--10s12121212121212-10h12121212121214-9h10101010s121212-12s10-10s9-9-7-5---------|
G|--9------------------------------------------------------------------------------|
D|---------------------------------------------------------------------------------|
A|---------------------------------------------------------------------------------|
E|---------------------------------------------------------------------------------|
*sits out during the verse*
Chorus:
e|-10s12121212-10s121212s999s1212121212-10s12121212-10s12121212-5h7------------|
B|----------------------------------------------------------------------7-5----|
G|-----------------------------------------------------------------------------|
D|-----------------------------------------------------------------------------|
A|-----------------------------------------------------------------------------|
E|-----------------------------------------------------------------------------|

e|-------161616-------161616-------171717-------191919-------------------------|
B|-9s10--------9s10-----------10s12--------12s14-------------------------------|
G|-----------------------------------------------------------------------------|
D|-----------------------------------------------------------------------------|
A|-----------------------------------------------------------------------------|
E|-----------------------------------------------------------------------------|
Tap to rate this tab
# A B C D E F G H I J K L M N O P Q R S T U V W X Y Z