Song name
# A B C D E F G H I J K L M N O P Q R S T U V W X Y Z

The Fratellis - Vince The Lovable Stoner tab

-------------------------------------------------------------------------------
			     Vince the Lovable Stoner - The Fratellis
-------------------------------------------------------------------------------
Tabbed by:
Email:

Tuning:

e|---7--7--8--9--10----10--10--9---8---7----7--7--8--9--10--10--13--10--13---|
B|---8--8-10-11--12----12--12--11--10--8----8--8-10-11--12--12--15--12--15---|
G|---------------------------------------------------------------------------|
D|---------------------------------------------------------------------------|
A|---------------------------------------------------------------------------|
E|---------------------------------------------------------------------------|


e|---10--9--13--10--9--10--9--10-------------------------------------------------|
B|---12--11-15--12--11-12--11-12-------------------------------------------------|
G|-------------------------------------------------------------------------------|
D|-------------------------------------------------------------------------------|
A|-------------------------------------------------------------------------------|
E|-------------------------------------------------------------------------------|
Tap to rate this tab
 
# A B C D E F G H I J K L M N O P Q R S T U V W X Y Z