Song name
# A B C D E F G H I J K L M N O P Q R S T U V W X Y Z

The Fratellis - Ole Black N Blue Eyes tab


 I don't see any correct solo tabs for this song so I decided to post my own tab. For 
most part I'm sure its correct. *Note- the entire solo at the end consists of two parts, 
only a little different from the next. They're numbered below.

  1.
e||---10-----|--------|----------------------|-----------------|
B||-----11---|---10---|-11-13-11-13-11-------|-----11-11-------|
G||-------10-|-----10-|---------------10--10-|---12-----10--10-|
D||-12-------|-10-----|-----------------12---|-13---------12---|
A||----------|--------|----------------------|-----------------|
E||----------|--------|----------------------|-----------------|
                 1.
e||--------------|---10-----|--------|----------------------|
B||--------------|-----11---|---10---|-11-13-11-13-11-------|
G||-8-9-10-9-8---|-------10-|-----10-|---------------10--10-|
D||-----------10-|-12-------|-10-----|-----------------12---|
A||--------------|----------|--------|----------------------|
E||--------------|----------|--------|----------------------|


                                   2.
e||-----------------|--------------|--10-----|-------|------------------10--|
B||-----11-11-------|--------------|----11---|--10---|-11-13-11-13-11-13----|
G||---12-----10--10-|-8-9-10-9-8---|------10-|----10-|----------------------|
D||-13---------12---|-----------10-|-12------|-10----|----------------------|
A||-----------------|--------------|---------|-------|----------------------|
E||-----------------|--------------|---------|-------|----------------------|


e||-----------------|---------------|
B||-----11-11-------|---------------|
G||---12-----10--10-|-8-9-10-9-8----|
D||-13---------12---|------------10-|Repeat 1. fade until end
A||-----------------|---------------|
E||-----------------|---------------|
Tap to rate this tab
# A B C D E F G H I J K L M N O P Q R S T U V W X Y Z