The Fratellis - Rhythm Doesnt Make You A Dancer tab

-------------------------------------------------------------------------------
			     Rhythm Doesn't Make You A Dancer - The Fratellis
-------------------------------------------------------------------------------
Tabbed by: mrtnway

Tuning: EADGBe

e|------------------------------------------------------------------------------------|
B|--------------------1--0---------------------------------------1--0------1--0-------|
G|-------2-------2------------0--------0---------------2------------------------------|
D|---2-------2---------------------2---------3----------------------------------------|
A|------------------------------------------------------------------------------------|
E|------------------------------------------------------------------------------------|

e|-----------------------------------------------------------------0-----------0------|
B|--------------------1--0--------------------------------------------3------------3--|
G|-------2-------2------------0--------0---------------2------------------------------|
D|---2-------2---------------------2---------3----------------------------------------|
A|------------------------------------------------------------------------------------|
E|------------------------------------------------------------------------------------|

e|----------------------------------------------------------------------------------|
B|--------------------1--0-------------------------------------1--0------1--0-------|
G|-------2-------2------------0--------0---------------2----------------------------|
D|---2-------2---------------------2---------3--------------------------------------|
A|----------------------------------------------------------------------------------|
E|----------------------------------------------------------------------------------|

e|---------------------------------------------------------------------------------------|
B|--------------------1--0----------------------------------------1----------------------|
G|-------2-------2------------0--------0--------------2----------------------------------|
D|---2-------2---------------------2---------3------------------------2------------------|
A|---------------------------------------------------------------------------------------|
E|---------------------------------------------------------------------------------------|
Tap to rate this tab
 
# A B C D E F G H I J K L M N O P Q R S T U V W X Y Z