Song name
# A B C D E F G H I J K L M N O P Q R S T U V W X Y Z

The Fratellis - Shes Not Gone Yet But Shes Leaving tab

The Fratellis - She's Not Gone Yet But She's Leaving

Standard tuning

Chords used:
       
 Verse:   F#m    Bm    C#7   Chorus:  A     F#m    Bm    C#7
e|--------9------7-----9--------------5-----2------2------4-----|
B|--------10-----7-----9h12-----------5-----2------3------6-----|
G|--------11-----7-----10-------------6-----2------4------4-----|
D|--------11-----9-----9--------------7-----4------4------6-----|
A|--------9------9-----11-------------7-----4------2------4-----|
E|--------9------7-----9--------------5-----2------x------x-----|


Verse 1:
          F#m                Bm
Well she's halfway over this hard on son
      C#7                     F#m
She's not gone yet but she's leaving
          F#m                       Bm
And she's quite sure she's not the only one
      C#7                     F#m
She's not gone yet but she's leaving
               F#m                      Bm
Well there's a quiver up her backbone, dogs in the dust
      C#7                     F#m
She's not gone yet but she's leaving
           F#m                             Bm
And she'll take what she needs and she'll do what she must
      C#7                     F#m
She's not gone yet but she's leaving


Chorus:
          A                F#m
There's a raw bone whisper underneath the cover
A                        F#m
Louder than a dead man's drum
          A                       F#m
There's a joke that they told her when she got much older
Bm                            C#7
When she knew just what she'd become

Oh let me tell ya that she's...



Verse 2:
F#m              Bm
One part evil, three-fifths blind
      C#7                     F#m
She's not gone yet but she's leaving
          F#m                 Bm
And she's oh so delicate and still don't mind
      C#7                     F#m
She's not gone yet but she's leaving
               F#m                              Bm
Well there's a chance that she knows where the bodies are kept
      C#7                     F#m
She's not gone yet but she's leaving
        F#m                       Bm
And she still don't remember the tears that she wept
      C#7                     F#m
She's not gone yet but she's leaving


Chorus

Solo:
Chords over solo: (F#m Bm C#7 F#m as verse) x 3
e|--------------------------------------------------------------------------------|
B|------------------------------------5b7-2-5-2-----------------------------------|
G|-4b6--4b6--4b6--2--4b6--4b6--4b6r4------------4b5r4p2---------------------------|
D|------------------------------------------------------4~--4-2-------------------|
A|--------------------------------------------------------------4-3-2--2p0-2p0----|
E|--------------------------------------------------------------------------------|

Hold                 hold
e|--------------------------------------5-----------------------------12b14-(x4)--|
B|------------------------------------5---7\----12b14-(x7)--14r12-10--------------|
G|---------------------2b3------2-2/6---------------------------------------------|
D|--------------------------4-4---------------------------------------------------|
A|-----2-3---4b5r4~--4------------------------------------------------------------|
E|--2-----------------------------------------------------------------------------|


e|-14r12-9------------------------------------------------------------12----------|
B|---------12b14r12-10----10--14--14--14--14r12-10-----10----10-12b14----b14------|
G|---------------------11--------------------------/11----11----------------------|
D|--------------------------------------------------------------------------------|
A|--------------------------------------------------------------------------------|
E|--------------------------------------------------------------------------------|

e|-12--------------------------------13-------------------------------------------|
B|----b14--14r12p10-----10----10--12b14-x7--10------------------------------------|
G|------------------/11----11------------------11---------------------------------|
D|--------------------------------------------------------------------------------|
A|--------------------------------------------------------------------------------|
E|--------------------------------------------------------------------------------|


           F#m               Bm
Well she's all too generous with my time
      C#7                     F#m
She's not gone yet but she's leaving
        F#m                      Bm
And she knows that injustice is no real crime
      C#7                     F#m
She's not gone yet but she's leaving
           F#m                  Bm
And I will always remember the way that she crawled
      C#7                     F#m
She's not gone yet but she's leaving
             F#m                 Bm
When I throw up in the rain she pretends she's appalled
      C#7                     F#m
She's not gone yet but she's leaving


          A                F#m
There's a raw bone whisper underneath the cover
Bm                       E
Louder than a dead man's drum
          A                       F#m
There's a joke that they told her when she got much older
D                             E
When she knew just what she'd become
Tap to rate this tab
# A B C D E F G H I J K L M N O P Q R S T U V W X Y Z