Song name
# A B C D E F G H I J K L M N O P Q R S T U V W X Y Z

The Fratellis - Whistle For The Choir tab

E|--------------------17-17-17-17-15-15-15-15-13-13-13-13-15-|
B|--18-18-18-18----------------------------------------------| 
G|-----------------------------------------------------------| 
D|-----------------------------------------------------------| 
A|-----------------------------------------------------------| 
e|-----------------------------------------------------------|


E|-15-15-15----------------15-15-15-15-13-13-13-13-12-12-12-|
B|------------17-17-17-17-----------------------------------|
G|----------------------------------------------------------| 
D|----------------------------------------------------------| 
A|----------------------------------------------------------| 
 e|---------------------------------------------------------|

 
 E|12-11-11-10-10-10-10------13-13-13-13-12-12-12-12|
 B|-------------------------------------------------|
 G|-------------------------------------------------| 
 D|-------------------------------------------------|
 A|-------------------------------------------------|
  e|------------------------------------------------|


  E|10-10-10-10-12-12-12-12----------------------10-10-10|
  B|-------------------------------13-13-13-13-----------|
  G|-----------------------------------------------------| 
  D|-----------------------------------------------------|
  A|-----------------------------------------------------|
   e|----------------------------------------------------|

  E|10-12-12-12-12-15-15-15-15-------------|
  B|---------------------------------------|
  G|---------------------------------------| 
  D|---------------------------------------|   
  A|---------------------------------------|
  e|---------------------------------------|

  Now repeat the entire solo

Tap to rate this tab
# A B C D E F G H I J K L M N O P Q R S T U V W X Y Z