Song name
# A B C D E F G H I J K L M N O P Q R S T U V W X Y Z

The Fratellis - For The Girl tab

-----------------------------------------------------------------------------
			     For the girl intro ,by The Fratellis
-----------------------------------------------------------------------------
Tabbed by:  Ratty267

Email: DPetitt@aol.com

Tuning: Standard

> is slide up 
< is slide down



e|----------------------------------------------------------------------------|
B|----------------------------------------------------------------------------|
G|-4---6---4---6->-8---8---6-<-4---6---3---3---3---3---1---1---1--------------|
D|------------------------------------------------------------------4---4-----|
A|----------------------------------------------------------------------------|
E|---------------------------------------------------------------------------|
Play this riff twice X2





Power chords
 

e|----2--------------->-------4--------------->-------6-----------------------|
B|----2---------4----->-------4---------6----->-------6---------8-------------|
G|----2---------4----->-------4---------6----->-------6---------8-------------|
D|----2---------4----->-------4---------6----->-------6---------8-------------|
A|----2---------4----->-------4---------6----->-------6---------8-------------|
E|----2---------4----->-------4---------6----->-------6---------8-------------|
Go back too riff and play twice more, into finished! 


Tap to rate this tab
# A B C D E F G H I J K L M N O P Q R S T U V W X Y Z