Song name
# A B C D E F G H I J K L M N O P Q R S T U V W X Y Z

The Fratellis - Vince The Lovable Stoner tab

V=down strum
^=up strum
|=end of bar
||=end of versue/Chorus
x=don't play string
Verse
  G          G/F               C          C    Bb   G       G    G/F
|-3-----------3     |----------0---0|    |0----1---|3------|3----3---|
|-0-----------0     |----------1---1|    |1----3---|0------|0----0---|
|-0-----------0     |----------0---0|    |0----3---|0------|0----0---|
|-0-----------0 x4  |----------2---2| x4 |2----3---|0------|0----0---|
|-2-----------2     |---0--2---3---0|    |3----1---|2------|2----0---|
|-3-----------2     |-3--------0---3|    |0----x---|3------|3----2---|
 VV^VV^VV^V^V^               VV^VV^       VV^  V    VV^ VV^ VV^  V^V^
G         G  C  G
|3-------|3--0--3--||
|0-------|0--1--0--||
|0-------|0--0--0--||
|0-------|0--2--0--||
|2-------|2--3--2--||
|3-------|3--x--3--||
 VV^ VV^  V^ V^ V^

Please comment on this tab.
Tap to rate this tab
# A B C D E F G H I J K L M N O P Q R S T U V W X Y Z