Song name
# A B C D E F G H I J K L M N O P Q R S T U V W X Y Z

The Fratellis - Ole Blank N Blue Eyes tab

There are two tabs on here and only one had the solo and 
it was horribly horribly wrong so here is the correct 
version. some of the chords in the other tabs dont sound
accurate either but im not touching them bc its too much
work!
enjoy 
                                                           1.
e||---6-----|---5-----|-6-8-6-8-6-------|-----6--6--------||-3-4-5-------|
B||-----6---|-----6---|-----------6-----|---6------6---6-o||-4-5-6-5-4-3-|
G||-------7-|-------7-|-------------7---|-7----------7----||-------------|
D||-8-------|-7-------|---------------8-|-----------------||-------------|
A||---------|---------|-----------------|----------------o||-------------|
E||---------|---------|-----------------|-----------------||-------------|

  2.
e|---3---4---------|
B|-4---5---6-5-4-3-|
G|-----------------|
D|-----------------|
A|-----------------|
E|-----------------|

e||---6-----|---5-----|-6-8-6-8-6-8-10-|-----6--6-------|---3---4---------||
B||-----6---|-----6---|----------------|---6------6---6-|-4---5---6-5-4-3-||
G||-------7-|-------7-|----------------|-7----------7---|-----------------||
D||-8-------|-7-------|----------------|----------------|-----------------||
A||---------|---------|----------------|----------------|-----------------||
E||---------|---------|----------------|----------------|-----------------||

the song fades out while continuing the first bars, the one above this
is a one time variation so just go back to the original riff.  if your 
playing at home finish however you want, if its live, since the song fades
out you could just play the solo riff (including the variation) 4 times
and then end on the root chord. i saw them live but i cant remember how they chose to end it unfortunately




Tap to rate this tab
# A B C D E F G H I J K L M N O P Q R S T U V W X Y Z