Song name
# A B C D E F G H I J K L M N O P Q R S T U V W X Y Z

The Fratellis - Creepin Up The Backstairs tab

hey i finally figured out the lead guitar in "Creepin Up the Backstairs", although it is
the awesome lead part, the chords and rhythm are already posted in another great tab,
is actually a very difficult song, because you have to move up and down the fretboard a 
and it gets pretty tricky, well here it is, the first lead part for this song, please
and rate its one of my first tabs (second actually)


This whole part is "Lead 1," inculding the "Play 6 Times."
e|---------3-3----------0-----10-10---0------------0--3-3-----------8-----7-----6---5-------------------|
B|------3------------------9-----------------1/2-----------3------------------------X-------Play--------|
G|-2/4----------4------------------------------------------------7------7-----6-----5------6-Times------|
D|------------------------------------------------------------------------------------------------------|
A|------------------------------------------------------------------------------------------------------|
E|------------------------------------------------------------------------------------------------------|
  (Only on the first time playing this do you slide 2/4, the rest of the time, just play 4)


This whole part is "Lead 2," including the "Play 3 Times."
e|----------12--12-------------8-8---------------10-10---------------------|
B|-12--12-------------------8----------------10----------------Play--------|
G|----------------------5/8---------8---8/10------------10-----3-Times-----|
D|-------------------------------------------------------------------------|
A|-------------------------------------------------------------------------|
E|-------------------------------------------------------------------------|


Then play: (this is also part of "lead 2.")
e|------------12-12-12---------8-8--------------10-10-------------|
B|-12-12-12------------------8---------------10-------------------|
G|-----------------------5/8-------8---8/10------------10---------|
D|----------------------------------------------------------------|
A|----------------------------------------------------------------|
E|----------------------------------------------------------------|

 After you play all of this:
 Play lead 1 again.
 Play lead 2 twice, but not directly after one another,
 there are other rhythm guitar parts that are played in between.

 And thats it, a great Fratellis lead part. short tab i know, but thats only because the
is just 3 parts repeated. Enjoy!
Tap to rate this tab
 
# A B C D E F G H I J K L M N O P Q R S T U V W X Y Z