Song name
# A B C D E F G H I J K L M N O P Q R S T U V W X Y Z

The Fray - She Is Acoustic tab

ggggdddaaaayyyy everyone... ive bin tryin to work out this god dam song for ages but i 
got the gist of it...ahah sam and dilly..BBBBOOOOOBBBBBIIIIEEEE!!
anyways here it is

Album: How to save a life
Artist: The Fray
Song: She Is (Acoustic)

Intro:

e|-------------------------------------------|
B|-------------------------------------------|
G|-------------------7-----------------------|
D|--------8--------------------7--------8----|
A|------------6h8----------------------------|
E|--6h8-------------------5h6------6h8-------|


Verse:

e|-------------------------------------------|
B|-------------------------------------------|
G|-------------------7-----------------------|
D|--------8--------------------7--------8----|
A|------------6h8----------------------------|
E|--6h8-------------------5h6------6h8-------|

Pre Chorus:

e|------------------------7-------8-----|
B|-------8--------8---------------------|   x2
G|--7h8------7h8-----7h9-----7h9--------|
D|--------------------------------------|
A|--------------------------------------|
E|--------------------------------------|

Chorus:

e|--------------------------------------|
B|--------------------------------------|
G|-------7--8--7------------------------|
D|--6/8-----------8---------------------|
A|--------------------------------------|
E|--------------------------------------|

(not realli sure bout the chorus)

thats pretty much it
aye...
Tap to rate this tab
 
# A B C D E F G H I J K L M N O P Q R S T U V W X Y Z