Song name
# A B C D E F G H I J K L M N O P Q R S T U V W X Y Z

The Fray - Fall Away tab

I'm pretty sure this is right, enjoy!


e---------------11-----8-----9-----9-----8-----8-------|
b-----------9------9------9-----9-----9-----9-----9----|
g--8-8-10-8---10-----10-----10----10----10----11----11-| 
d------------------------------------------------------|
a------------------------------------------------------|
e------------------------------------------------------|


e---------------11-----8-----9-----9-----8-----8-------|
b----9------9------9------9-----9-----9-----9-----9----|
g--8---9--8---9------10-----10----10----10----11----11-| 
d------------------------------------------------------|
a------------------------------------------------------|
e------------------------------------------------------|




Chorus

  C#		 Fm 	      Bbm         Gb
e--9-------------8------------6-----------2----------|
b--9-------------9------------6-----------2----------|
g--10------------10-----------6-----------3----------|
d--11------------10-----------8-----------4----------|
a--11------------8------------8-----------4----------|
e--9--------------------------6-----------2----------|
Tap to rate this tab
 
# A B C D E F G H I J K L M N O P Q R S T U V W X Y Z