Song name
# A B C D E F G H I J K L M N O P Q R S T U V W X Y Z

The Fray - Ungodly Hour tab

The Fray
“Ungodly Hour” Solo

What is this? A beautiful guitar solo that captures the essence of a song written by a 
known for their overuse of sappy piano? Awfully hard to transcribe the rhythm here but I 
you can gather the gist.

E|-----------------------------------------------------|
B|------8-------11p8-11/13-11/8------16----15-13-------|
G|-7/10---------------------------12----12-------12h13-|
D|-----------------------------------------------------|
A|-----------------------------------------------------|
E|-----------------------------------------------------|

E|------------------------------------------------------|
B|----16----15-----------16----15-----------16----15----|
G|-12----12----13p12—-12----12----12h13--12----12----12-|
D|------------------------------------------------------|
A|------------------------------------------------------|
E|------------------------------------------------------|

E|------------------------------------------------------|
B|------------------------------------------------------|
G|-12h13h15/17-15p13p12-10-8---7h8p7p5------------------|
D|-------------------------------------7/10—10p7-13-7---|
A|------------------------------------------------------|
E|------------------------------------------------------|

E|----------------------|
B|----------------------|
G|----------------------|
D|-13-8/5—--3-5-6---(1)-|
A|----------------------|
E|----------------------|
Tap to rate this tab
# A B C D E F G H I J K L M N O P Q R S T U V W X Y Z