Guitaretab - guitar tabs
Song name
# A B C D E F G H I J K L M N O P Q R S T U V W X Y Z

The Fray - Uncertainty tab

Highlighted       Show chord diagrams
Tabbed by: shadow3889
Email:bjj2t@mtsu.edu

The song is in standard tuning capo 1st fret. All chords are relative to the capo.
     A#m7    F#maj9     G
e|--0-----0------x------------------------------------------------|
b|--1-----1------1------------------------------------------------|
G|--0-----0------0------------------------------------------------|
D|--2-----2------0------------------------------------------------|
A|--0-----0------x------------------------------------------------|
E|--x-----1------3------------------------------------------------|



Intro (and you can play the rest of the verses like this)
    A#m7            F#maj9               G
e|--0---------0---------x-----------------------------------------|
b|--1---------1---------1-----------------------------------------|
G|--0---------0---------0-----------------------------------------|
D|--2---------2---------0-----------------------------------------|
A|--0---------0---------x-----------------------------------------|
E|--x------0--1-----0---3---1-------------------------------------|



[ Tab from: http://www.guitaretab.com/t/the-fray/180190.html ]
A#m7    F#maj9     G
              Uncertainty is killing me 
A#m7   F#maj9              G
              And Iím certainly not asleep 
A#m7    F#maj9       G   
              Maybe Iíve gone far to deep 
A#m7    F#maj9     G   
               Maybe Iím just far to weak 
A#m7    F#maj9                      G   
              Ands thatís the last place 
G             A#m7    F#maj9          G  
I want------- to be the last place 



A#m7                 G                         F#maj9
And there is so much we donít know 
A#m7                       G                   F#maj9  
 So we love and we hope that it----- holds 

  (same as previous verse)
Thousands were lost maybe more 
   The question remains, what is this for? 
   Maybe it came unexpected 
   Maybe Iím left unprotected 
   And thatís the last place 
   I want to be the last place 



   A#m7                 G                         F#maj9
   And there is so much we donít know 
   A#m7                      G                   F#maj9
   So we love and we hope that it holds 
   A#m7               G                F#maj9
   And either we say or we show 
  A#m7                 G                    F#maj9 
  So Iím going to fight for my----- own 

 I'm not quite sure about this but i believe its the same as the chorus

  
   F#maj9         A#m7          G         F#maj9
                         Iím holding on until the last 
A#m7            G                         F#maj9  
 Iím holding on until thereís nothing left 
   Iím holding on until the last 
   Iím holding on until thereís nothing left
Related for Uncertainty tab