Song name
# A B C D E F G H I J K L M N O P Q R S T U V W X Y Z

The Fray - Unsaid tab

1st Tab so the layout will be terrible but hopefully the notes will be right? Sick of 
incomplete tabs for this song so I've dedicated myself to working it out..somehow. So here 
nothing :P

Standard Tuning
Intro
Played 2 Times
|-------------------------------|-------------------------------|
|-------------------------------|-------------------------------|
|-5p0-0----0------0---0---0----0|-5\4p0----0------0-----0-----0-|
|-------5------5-LetRing--------|-------5------5------5---5-----|
|-0-----2----2-3----3----3---3--|-0-----2----2-3----3---3---3---|
|-------------------------------|-------------------------------|
During 3rd Time
|-------------------------------|-------------------------------------|
|-------------------------------|---------------------------8---8-----|
|-5p0-0----0------0---0--4h5----|-5---5--5----5--5----5---5-------5---|
|-------5------5-LetRing-----5--|---5-------5-------5---5-----5-----5-|
|-0-----2----2-3----3----3-----3|-3------5-------5----0-----0---------|
|-------------------------------|-------------------------------------|

Pre-Verse? :S

|-----------------------------|
|------------1-----------1----|
|-----2-0-------0-----0----0--|
|------------------3---------3|
|---3-------------------------|
|-1--------1--1--1--1--1------|

Verse

|-------------------------------|
|------1-----1------------------|
|----------0-------2-0---2---0--|
|-0--3---2-----2-3-----3---3---3|
|-------------------------------|
|-------------------------------|

Thats all for now but hopefully that will shed some light on the song. If I figure out 
I'll probably edit this. Enjoy

Tabber:ThatChineseGuy
E-Mail:Synzyboy@hotmail.com
Tap to rate this tab
# A B C D E F G H I J K L M N O P Q R S T U V W X Y Z