Song name
# A B C D E F G H I J K L M N O P Q R S T U V W X Y Z

The Fray - Happiness tab

Song: Happiness
Artist: The Fray
Tunning: Standard
Capo on 1st fret

This is the second tab I've attmepted hope it's alright and hope you enjoy it.

Intro

     Cadd9     G       Em7     Cadd9   G   Em7    Cadd9    G
e|--------------------------------------------------------------|
B|------------------------------------------3-----------------0-|
G|-----0-------0-------0----------0----0-----0-0---0---0-0--0-0-|
D|----2--2-2--0--0-0--2--2-2-----2----0-------2---2-0h2---------|
A|---3----3--2----2--2----2-----3----2-----------3--------------|
E|--0-------3-------0----------0----3-----00---------------3-3--|


Verse 1

   Cadd9  G  Em7   Cadd9   G     G         Cadd9    G    Em7
e|-----------------------------------------------------------|
B|-------------2------------------------------------------0--|
G|----0---0-----0----0-0---0-0-----0-----------0----0------0-|
D|---2---0----2-------2-----0-----0-0--------2-----0-----2---|
A|--3---2----2------3------------2---------3------2-----2----|
E|-0---3----0-------------3-----3--------0-------3-----0-----|
  Happiness,    Just outside my window,  Thought it'd crash,


     Cadd9   G    G          Cadd9 G Em7        Cadd9          G
e|--------------------------------------------------------------------|
B|-------------------------------------2-2----------------------------|
G|-------0-----0----0-0-------0----0--0-0--------0--0-------------0-0-|
D|-----2-----0-----0-0-0-----2----0------------2--2--2----------0--0--|
A|---3-----2-----2----------3----2-----------3----------------2-------|
E|-0-----3-----3----------------3---0------0----------------3---------|
 Blowing 80 miles an hour,  Happiness,     Little more like knocking,

    Cadd9 G  Em7
e|--------------------------------------|
B|-------------0------------------------|
G|----0----0----------0---0-------0-0---|
D|---2----0---2------2--2--2-----0-0-0--|
A|--3----2---2-----3------------2-------|
E|-0----3---0----0-------------3--------|
   On your door, You just let it in,


     Cadd9     G       Em7     Cadd9   G   Em7    Cadd9    G
e|--------------------------------------------------------------|
B|------------------------------------------3-----------------0-|
G|-----0-------0-------0----------0----0-----0-0---0---0-0--0-0-|
D|----2-------0-------2----------2----0-------2---2-0h2---------|
A|---3-------2-------2----------3----2-----------3--------------|
E|--0-------3-------0----------0----3-----00---------------3-3--|


Verse 2

    Cadd9 G Em7     Cadd9   G       G     Cadd9 G  Em7
e|-------------------------------------------------------|
B|------------2------------------------------------------|
G|----0---0----0----0-0----0-0------0-0-----0---0---0-0--|
D|---2---0---2-------2------0------0-0-0---2---0---2-2-2-|
A|--3---2---2-----3---------------2-------3---2---2------|
E|-0---3---0-------------3-------3-------0---3---0-------|
   Happiness,   Feels alot like sorrow,  Let it be,

            Cadd9            G
e|----------------------------------|
B|----------------------------------|
G|------------0-0-------------0-0---|
D|-----------2-2-2-----------0-0-0--|
A|----------3---------------2-------|
E|---------0---------------3--------|
 You can't make it come or go,

e|---------------------------------------------------------|
B|------------0-----------------------------------------2--|
G|----0---0----0-----0-0----0-0---------0-------0---0----0-|
D|---2---0---2--------2------0---------0-0-0---2---0---2---|
A|--3---2---2------3------------------2---2---3---2---2----|
E|-0---3---0--------------3----------3-------0---3---0-----|
 You are gone,   Not for good but for now,  Gone for now,

            Cadd9            G
e|-------------------------------------|
B|-------------------------------------|
G|--------0-0-------------0-0------0-0-|
D|-------2-2-2-----------0-0-0---0-0-0-|
A|------3---------------2------2----2--|
E|-----0---------------3---------------|
Feels alot like gone for good,


e|----------------------------------------------------|
B|----------------------0-----------------------------|
G|----0---0---0---0---0--0---0-----0-0---0-0--0-0-----|
D|---2-0h2---0-0h2---0-0--0-2-----2-0---0-0--2-2------|
A|--3-------2-------2------------3-----2----3---------|
E|-0-------3-------3------------0-----3---------------|



Ok, so i had almost this whole tab done
Then when i went to save what i had for later I clicked a link and it erased everything 
had that wasn't already saved
So that's really depressing to me.
I'll come back to it later but for now my brain fried itself when i realized it all got deleted.
Tap to rate this tab
# A B C D E F G H I J K L M N O P Q R S T U V W X Y Z