Song name
# A B C D E F G H I J K L M N O P Q R S T U V W X Y Z

The Fray - Happiness tab

The Fray - Happiness

Capo 1st fret:

|-----------------------------------------------------------------------------------------------|
|-------------------------------------------------------------3--------------------------3------|
|--------0-----------0----------0-----------0-------0----------0-0------0-----0-0---------0-0---|
|------2---2-2-----2--2-2-----0--0-0------2-------0--------0----2-----2---0h2----------0---0----|
|----2------2----3-----3----2-----2-----3-------2--------2----------3----------------2----------|
|--0-----------0----------3-----------0-------3--------0---------------------------3------------|


|---------------------------------------------------------------------------------------|
|------------------------3--------------------------------------------------------0-----|
|-------0-------0---------0-0-----0-0------0-0--------0-----------0-------0--------0-0--|
|-----2-------0-------2----2-------2--------0-------2--2-2------2-------0-------2---0---|
|---3-------2-------2-----------3-----------------2-----2-----3-------2-------2---------|
|-0-------3-------0----------------------3------0-----------0-------3-------0-----------|


|--------------------------------------------------------------------------------------------|
|-------------------------------------------------------2-2----------------------------------|
|-------0-------0--------0-0-----------0-------0---------0----------0---0-----------0---0----|
|-----2-------0--------2--2-2--------2-------0-------2------------2---2---2-------0---0---0--|
|---3-------2--------2-------------3-------2-------2------------3---------------2------------|
|-0-------3--------0-------------0-------3-------0------------0---------------3--------------|

|-------------------------------------------------------------|
|-------------------------0-0---------------------------------|
|--------0-------0---------0-0-------0---0-----------0---0----|
|------2-------0-------2-----------2---2---2-------0---0---0--|
|----3-------2-------2-----------3---------------2------------|
|--0-------3-------0-----------0---------------3--------------|

|---------------------------------------------------------------|
|------------------------3-----------------------------3--------|
|--------0-------0--------0-0--------0-----0-0----------0-0-----|
|------2-------0-------2---2-------2---0h2----------0----0------|
|----3-------2-------2-----------3----------------2-------------|
|--0-------3-------0----------------------------3---------------|

Then Repeat for 2nd/3rd/4th verse.

Or play the chords after 2nd verse:

Cadd9  G   Em7

it's till thes 3 chords.


Hope everything is fine with this Tab :D
(Somehow it didn't let me write the chords over the tabs, but it's still: Em Cadd9 G Em7 
the Tab, sorry about that ;) )
Tap to rate this tab
 
# A B C D E F G H I J K L M N O P Q R S T U V W X Y Z