Song name
# A B C D E F G H I J K L M N O P Q R S T U V W X Y Z

The Fray - Fair Fight tab

SONG: Fair Fight
ARTIST: The Fray
ALBUM: Bonus track on 2nd studio album "The Fray"
TUNING: Standard
CAPO: None
NOTES: H = Hammer-on; P = Pull-off
Finger picking is recommended
Listen to the song for the rhythm [it is not too difficult if you listen!]
The majority of this is correct in my opinion, although I left out a few arbitrary 
notes. Hopefully this is helpful.

INTRO x2
e|--------------------------------------------------------------------|
B|--------------------------------------------------------------------|
G|----------0--0----------------------0-------0-------0-------0-------|
D|----0h2------------0h2---0--0----0-------0-------0-------0----------|
A|--------------------------------------------------------------------|
E|--0-----0-------2------2------3---3---3---3---3---3---3---3---------|

VERSE x4
Made it fourteen city blocks without breathing
Light breaks from the left and hits between the buildings
Stoplights change their name from red to green to red to green again.
Love has it's critics, but they never keep many friends...
e|-------------------------------------------------------------------|
B|--------------------------------------------3----------------------|
G|----------0--0----------------------0---------------0-------0------|
D|----0h2------------0h2--0--0----0-------0-------0-------0----------|
A|-------------------------------------------------------------------|
E|--0-----0-------2-------------3---3---3---3---3---3---3---3--------|

PRE-CHORUS
[begins after "never keep many friends"]
e|----------------------------------------------------------------|
B|----------------3-----------------------------------------------|
G|--------0----------------0--------------------------------------|
D|----0-------0-------0----------0----0---------------------------|
A|--3---3---3---3---3---3-----3-----3-----------------------------|
E|----------------------------------------------------------------|

CHORUS
It's alright...
e|----------------------------------------------------------------|
B|----------------3-----------------------------------------------|
G|--------0----------------0--------------------------------------|
D|----0-------0-------0----------0----0---------------------------|
A|--2---2---2---2---2---2-----2-----2-----------------------------|
E|----------------------------------------------------------------|

This could be a rough night.
e|------------------------------------------------------------------------|
B|----------------------------------------------------3-------------------|
G|--------0-------0--------0--------0---------0----------------0-------0--|
D|----0-------0--------0--------0---------0-------0--------0-------0------|
A|------------------------------------------------------------------------|
E|--0----0--0---0----2---2----2---2-----3---3---3---3----3---3---3----3---|

So hold tight...
e|----------------------------------------------------------------|
B|----------------3-----------------------------------------------|
G|--------0----------------0--------------------------------------|
D|----0-------0-------0----------0----0---------------------------|
A|--3---3---3---3---3---3----3-----3------------------------------|
E|----------------------------------------------------------------|

This is not a fair fight...
e|--------------------------------------------------|
B|--------------------------------------------------|
G|--------0-------0--------0--------0---------------|
D|----0-------0--------0--------0-------------------|
A|--------------------------------------------------|
E|--0----0--0---0----2---2----2---2-----------------|

INTERLUDE x2
e|-------------------------------------------------------------------|
B|--------------------------------------------3----------------------|
G|----------0--0----------------------0---------------0-------0------|
D|----0h2------------0h2--0--0----0-------0-------0-------0----------|
A|-------------------------------------------------------------------|
E|--0-----0-------2-------------3---3---3---3---3---3---3---3--------|

VERSE x4
She up and died and left you in a fall you cannot forget
You were too young - you said "not yet, not yet, not yet"
That year the cherries choked from pretty pink to red to brown
You looked around but she was nowhere to be found...
e|-------------------------------------------------------------------|
B|--------------------------------------------3----------------------|
G|----------0--0----------------------0---------------0-------0------|
D|----0h2------------0h2--0--0----0-------0-------0-------0----------|
A|-------------------------------------------------------------------|
E|--0-----0-------2-------------3---3---3---3---3---3---3---3--------|


PRE-CHORUS
[begins after "nowhere to be found"]
e|----------------------------------------------------------------|
B|----------------3-----------------------------------------------|
G|--------0----------------0--------------------------------------|
D|----0-------0-------0----------0----0---------------------------|
A|--3---3---3---3---3---3-----3-----3-----------------------------|
E|----------------------------------------------------------------|

CHORUS
It's alright...
e|----------------------------------------------------------------|
B|----------------3-----------------------------------------------|
G|--------0----------------0--------------------------------------|
D|----0-------0-------0----------0----0---------------------------|
A|--2---2---2---2---2---2-----2-----2-----------------------------|
E|----------------------------------------------------------------|

This could be a rough night.
e|------------------------------------------------------------------------|
B|----------------------------------------------------3-------------------|
G|--------0-------0--------0--------0---------0----------------0-------0--|
D|----0-------0--------0--------0---------0-------0--------0-------0------|
A|------------------------------------------------------------------------|
E|--0----0--0---0----2---2----2---2-----3---3---3---3----3---3---3----3---|

So hold tight...
e|----------------------------------------------------------------|
B|----------------3-----------------------------------------------|
G|--------0----------------0--------------------------------------|
D|----0-------0-------0----------0----0---------------------------|
A|--3---3---3---3---3----3----3-----3-----------------------------|
E|----------------------------------------------------------------|

This is not a fair fight...
e|--------------------------------------------------|
B|--------------------------------------------------|
G|--------0-------0--------0--------0---------------|
D|----0-------0--------0--------0-------------------|
A|--------------------------------------------------|
E|--0----0--0---0----2---2----2---2-----------------|

It's alright...
e|----------------------------------------------------------------|
B|----------------3-----------------------------------------------|
G|--------0----------------0--------------------------------------|
D|----0-------0-------0----------0----0---------------------------|
A|--2---2---2---2---2---2-----2-----2-----------------------------|
E|----------------------------------------------------------------|

This will be a rough night.
e|------------------------------------------------------------------------|
B|----------------------------------------------------3-------------------|
G|--------0-------0--------0--------0---------0----------------0-------0--|
D|----0-------0--------0--------0---------0-------0--------0-------0------|
A|------------------------------------------------------------------------|
E|--0----0--0---0----2---2----2---2-----3---3---3---3----3---3---3----3---|

So hold tight...
e|----------------------------------------------------------------|
B|----------------3-----------------------------------------------|
G|--------0----------------0--------------------------------------|
D|----0-------0-------0----------0----0---------------------------|
A|--3---3---3---3---3----3----3-----3-----------------------------|
E|----------------------------------------------------------------|

This is not a fair fight...
e|--------------------------------------------------|
B|--------------------------------------------------|
G|--------0-------0--------0--------0---------------|
D|----0-------0--------0--------0-------------------|
A|--------------------------------------------------|
E|--0----0--0---0----2---2----2---2-----------------|

INTERLUDE x2
e|----------------------------------------------------------------3--|
B|----------------------------------------------------------------0--|
G|----------0--0----------------------0-------0-------0-------0---0--|
D|----0h2------------0h2--0--0----0-------0-------0-------0-------0--|
A|----------------------------------------------------------------2--|
E|--0-----0-------2-------------3---3---3---3---3---3---3---3-----3--|

Rate and comment please :)
Tap to rate this tab
 
# A B C D E F G H I J K L M N O P Q R S T U V W X Y Z