Song name
# A B C D E F G H I J K L M N O P Q R S T U V W X Y Z

The Fray - 48 To Go chords

Highlighted       Show chord diagrams
-------------------------------------------------------------------------------
                             The Fray - 48 to Go
-------------------------------------------------------------------------------
Tabbed by: Jerry Janosko

Tuning: Half-Step Down

Intro: 

     D Dsus4 D Dsus4 D(no3)  D

e|---2-2--3--2-2--3--5-5--3--2-2-2-------------------------------------------|
B|---3-3--3--3-3--3--3-3--3--3-3-3-------------------------------------------|
G|---2-2--2--2-2--2--2-2--2--2-2-2-------------------------------------------|
D|---0-0--0--0-0--0--0-0--0--0-0-0-------------------------------------------|
A|---------------------------------------------------------------------------|
E|---------------------------------------------------------------------------|

Verse:

     Bm     A      G      D

e|---2-2-2--0-0-0--3-3-3--2-2-2----------------------------------------------|
B|---3-3-3--2-2-2--3-3-3--3-3-3----------------------------------------------|
G|---4-4-4--2-2-2--0-0-0--2-2-2----------------------------------------------|
D|---4-4-4--2-2-2--0-0-0--0-0-0----------------------------------------------|
A|---2-2-2--0-0-0--3-3-3-----------------------------------------------------|
E|---2-2-2--0-0-0--2-2-2-----------------------------------------------------|
     
     From Denver to California...

Pre-Chorus:

     F#m        Bm         G          A

e|---2-2-2-2-2--2-2-2-2-2--3-3-3-3-3--0-0-0-0-0------------------------------|
B|---2-2-2-2-2--3-3-3-3-3--3-3-3-3-3--2-2-2-2-2------------------------------|
G|---2-2-2-2-2--4-4-4-4-4--0-0-0-0-0--2-2-2-2-2------------------------------|
D|---4-4-4-4-4--4-4-4-4-4--0-0-0-0-0--2-2-2-2-2------------------------------|
A|---4-4-4-4-4--2-2-2-2-2--3-3-3-3-3--0-0-0-0-0------------------------------|
E|---2-2-2-2-2--2-2-2-2-2--2-2-2-2-2--0-0-0-0-0------------------------------|
     
     Were taking it slow...

Chorus is same as Intro

Break:

     Am         Bm     D    x3   G          A

e|---0-0-0-0-0--2-2-2--2-2-2--|--3-3-3-3-3--0-0-0-0-0------------------------|
B|---1-1-1-1-1--3-3-3--3-3-3--|--3-3-3-3-3--2-2-2-2-2------------------------|
G|---2-2-2-2-2--4-4-4--2-2-2--|--0-0-0-0-0--2-2-2-2-2------------------------|
D|---2-2-2-2-2--4-4-4--0-0-0--|--0-0-0-0-0--2-2-2-2-2------------------------|
A|---0-0-0-0-0--2-2-2---------|--3-3-3-3-3--0-0-0-0-0------------------------|
E|---0-0-0-0-0--2-2-2---------|--2-2-2-2-2--0-0-0-0-0------------------------|
     
     Desert wind...              2 Down and 48 to go...

Outro is same as Intro
Tap to rate this tab
# A B C D E F G H I J K L M N O P Q R S T U V W X Y Z