Song name
# A B C D E F G H I J K L M N O P Q R S T U V W X Y Z

The Fray - Hundred chords

-------------------------------------------------------------------------------
                             Hundred - The Fray
-------------------------------------------------------------------------------
Tabbed by:Joe Goeltl
E-mail:joelg643@yahoo.com

Tuning:EADGBe
capo 3 Fret




DM                G
The how I can't recall

          DM             G                AM C
But I'm staring at what once was the wall

    F        C            EM              BM                    AM
Separating east and west Now, they meet amidst the broad daylight



Chorus                                    Use c as a transition to the verse
e|------------0-----------------------------------------------0----------------|
B|--1-------------3------3------3-----------------------------1----------------|
G|--2-----2-------------------------0-------------------------0----------------|
D|--2--2--------------------------------0---------------------2----------------|
A|--0---------------------------------------------------------3----------------|
E|--------------------0------3-------------------------------------------------|



So, this is where you are And this is where I am


Somewhere between unsure And a hundred

DM                  G
It's hard I must confess

      DM            G                 AM C
I'm banking on the rest to clear away

      F                 C          EM            BM           AM
Cause we have spoken everything Everything short of I love you



Chorus                                  Use c as a transition to the verse
e|------------0-----------------------------------------------0----------------|
B|--1-------------3------3------3-----------------------------1----------------|
G|--2-----2-------------------------0-------------------------0----------------|
D|--2--2--------------------------------0---------------------2----------------|
A|--0---------------------------------------------------------3----------------|
E|--------------------0------3-------------------------------------------------|


You right where you are


From right where I am


Somewhere between unsure And a hundred


Somewhere between unsure And a hundred

     AM C     EM        G
And who s to say it's wrong?

     AM C     EM       G
And who s to say that it's not right

  AM C EM   G           C
Where we should be for now?



Chorus                                                     End on C
e|------------0-----------------------------------------------0----------------|
B|--1-------------3------3------3-----------------------------1----------------|
G|--2-----2-------------------------0-------------------------0----------------|
D|--2--2--------------------------------0---------------------2----------------|
A|--0---------------------------------------------------------3----------------|
E|--------------------0------3-------------------------------------------------|



So, this is where you are And this is where I am


So, this is where you are And this is where I've been


And this is where I've been


Somewhere between unsure And a hundred
Tap to rate this tab
 
# A B C D E F G H I J K L M N O P Q R S T U V W X Y Z