Song name
# A B C D E F G H I J K L M N O P Q R S T U V W X Y Z

The Fray - Be Still tab

MY FIRST ONE!!
(:   enjoy~

intro
e----------------------------|
b---------1---0--------------|
g-4---2---2---0--- 0---2---0-|
d-----0----------------0-----|
a----------------------------|
e-3----------------3-------3-|

verse 1
e-------------------------------------------------------------------|
b---------1---0----------------------------1---0--------------------|
g-4---2---2---0--- 0---2---0-------4---2---2---0--- 0---2---0-------|
d-----0----------------0---2---0-------0----------------0-----------|
a--------------------------3----------------------------------------|
e-3----------------3-----------3---3----------------3-------3-------|

chorus
e------------------------------------------------------|
b-1---------------------------1---0--------------------|
g-0----0----0----1----4---2---2---0--- 0---2---0-------|
d------2----0----0--------0----------------0-----------|
a-3----2---------0-------------------------------------|
e-----------3---------3--------------- 3-------3-------|

verse 2
e-------------------------------------------------------------------|
b---------1---0----------------------------1---0--------------------|
g-4---2---2---0--- 0---2---0-------4---2---2---0--- 0---2---0-------|
d-----0----------------0---2---0-------0----------------0-----------|
a--------------------------3----------------------------------------|
e-3----------------3-----------3---3----------------3-------3-------|

chorus
e------------------------------------------------------|
b-1---------------------------1---0--------------------|
g-0----0----0----1----4---2---2---0--- 0---2---0-------|
d------2----0----0--------0----------------0-----------|
a-3----2---------0-------------------------------------|
e-----------3---------3--------------- 3-------3-------|

verse 3
e-------------------------------------------------------------------|
b---------1---0----------------------------1---0--------------------|
g-4---2---2---0--- 0---2---0-------4---2---2---0--- 0---2---0-------|
d-----0----------------0---2---0-------0----------------0-----------|
a--------------------------3----------------------------------------|
e-3----------------3-----------3---3----------------3-------3-------|

ending
e----------------------------|
b---------1---0--------------|
g-4---2---2---0--- 0---2---0-|
d-----0----------------0-----|
a----------------------------|
e-3----------------3-------3-|
Tap to rate this tab
 
# A B C D E F G H I J K L M N O P Q R S T U V W X Y Z