Song name
# A B C D E F G H I J K L M N O P Q R S T U V W X Y Z

The Fray - Love Dont Die tab

Here is the intro of The Fray's song Love Don't Die I couldn't figure out the 
whole tab till now ;)



e|------------------------------|
b|------------------------------|
g|----4-4-4--------4-4-4--------| 9x
D|------------------------------|
A|---2-2-2-00-1p2-2-2-2-00-1p2--|
E|------------------------------|

after that : 

e|-----------------------------------------------------------|
b|-----------------------------------------------------------|
g|----4-4-4-----------------------------------------4-4-4----| 1x
D|----------------5-5-5------2-2-2-00-1-2-2-2-00-1-----------|  
A|---2-2-2-00-1------------------------------------2-2-2-00-1|
E|---------------3-3-3-33p2-0-0-0------0-0-0-----------------|


The whole stuff 2 times then the refrain comes...

Please feedback ;) 
Tap to rate this tab
# A B C D E F G H I J K L M N O P Q R S T U V W X Y Z