Song name
# A B C D E F G H I J K L M N O P Q R S T U V W X Y Z

The Freeze - Idiots At Happy Hour tab

Idiots At Happy Hour - The Freeze
This Is Boston Not L.A.
-------------------------------------------------------------------------------
Tabbed by:axeslash
Email: holmzito@yahoo.com

Tuning: Standard

e|---------------------------------------------------------------------------------|
B|---------------------------------------------------------------------------------|
G|-4-5-5-5-4-5-5-5-----------------4/5-5-5-4/5-5-5-4-5-4-5-4-5-4-5-----------------|
D|-4-5-5-5-4-5-5-5-7-7-7-7-7-7-7-7-4/5-5-5-4/3-3-3-4-5-4-5-4-5-4-5-7-7-7-7-7-7-7-7-|
A|-2-3-3-3-2-3-3-3-7-7-7-7-7-7-7-7-2/3-5-5-2/3-3-3-2/3\2/3\2/3\2/3-7-7-7-7-7-7-7-7-|
E|-----------------5-5-5-5-5-5-5-5---------------------------------5-5-5-5-5-5-5-5-|

e|---------------------------------|
B|---------------------------------|
G|-4-5-5-5-5-5-5-5-----------------|
D|-4-5-5-5-5-5-5-5-7-7-7-7-7-7-7-7-|
A|-2-3-3-3-3-3-3-3-7-7-7-7-7-7-7-7-|
E|-----------------5-5-5-5-5-5-5-5-| x4

e|----------------------------------|    e|---------------------------------|
B|----------------------------------|    B|---------------------------------|
G|---------5-5-5-5------------------|    G|---------5-5-5-5-----------------|
D|-7-7-7-7-5-5-5-5-5-X-X-5--5-X-X-5-|    D|-7-7-7-7-5-5-5-5-5-X-X-X-X-X-X-X-|
A|-7-7-7-7-3-3-3-3-5-X-X-5--5-X-X-5-|    A|-7-7-7-7-3-3-3-3-5-X-X-X-X-X-X-X-|
E|-5-5-5-5---------3-X-X-3--3-X-X-3-| x3 E|-5-5-5-5---------3-X-X-X-X-X-X-X-|

e|---------------------------------------------------------------------------------|
B|---------------------------------------------------------------------------------|
G|-4-5-5-5-4-5-5-5-----------------4/5-5-5-4/5-5-5-4-5-4-5-4-5-4-5-----------------|
D|-4-5-5-5-4-5-5-5-7-7-7-7-7-7-7-7-4/5-5-5-4/3-3-3-4-5-4-5-4-5-4-5-7-7-7-7-7-7-7-7-|
A|-2-3-3-3-2-3-3-3-7-7-7-7-7-7-7-7-2/3-5-5-2/3-3-3-2/3\2/3\2/3\2/3-7-7-7-7-7-7-7-7-|
E|-----------------5-5-5-5-5-5-5-5---------------------------------5-5-5-5-5-5-5-5-|

e|---------------------------------|
B|---------------------------------|
G|-4-5-5-5-5-5-5-5-----------------|
D|-4-5-5-5-5-5-5-5-7-7-7-7-7-7-7-7-|
A|-2-3-3-3-3-3-3-3-7-7-7-7-7-7-7-7-|
E|-----------------5-5-5-5-5-5-5-5-| x4

e|----------------------------------|    e|-------------------|
B|----------------------------------|    B|-------------------|
G|---------5-5-5-5------------------|    G|---------5-5-5-5---|
D|-7-7-7-7-5-5-5-5-5-X-X-5--5-X-X-5-|    D|-7-7-7-7-5-5-5-5-5-|
A|-7-7-7-7-3-3-3-3-5-X-X-5--5-X-X-5-|    A|-7-7-7-7-3-3-3-3-5-|
E|-5-5-5-5---------3-X-X-3--3-X-X-3-| x3 E|-5-5-5-5---------3-|


| X  muted note
| /  slide up
| \  slide down
| h  hammer-on
| p  pull-off
| ~  vibrato
| +  harmonic
| x  Mute note
===============================================================================
Tap to rate this tab
# A B C D E F G H I J K L M N O P Q R S T U V W X Y Z