Song name
# A B C D E F G H I J K L M N O P Q R S T U V W X Y Z

The Freeze - Refrigerator Heaven tab

-------------------------------------------------------------------------------
Refrigerator Heaven - The Freeze
This Is Boston Not L.A.
-------------------------------------------------------------------------------
Tabbed by: axeslash
Email: holmzito@yahoo.com

Tuning:

e|-----------7--------5-----------5--------5--|
B|-----------7--------5-----------5-----7--5--|
G|-9---------7--------5-----9-----6-----7--6--|
D|-9----9----7--7-----7-----9-----7-----7--7--|
A|-7----9-------7-----7-----7-----7-----7--7--|
E|------7-------5-----5-----------5-----5--5--| x2

e|-----------7--------5-----------5-----5----|
B|-----------7--------5-----------5-----5----|
G|-9---------7--------5-----9-----6-----6----|
D|-9----9----7--7-----7-----9-----7-----7----|
A|-7----9-------7-----7-----7-----7-----7----|
E|------7-------5-----5-----------5-----5----|

e|---------------------------------|     e|--------------------------------------|
B|---------------------------------|     B|--------------------------------------|
G|---------------------------------|     G|--------------------------------------|
D|-----------------9-9-9-9-7-7-7-7-|     D|-----------------9-9-9-9-7-7-7-7------|
A|-7-9-9-9-7-9-9-9-7-7-7-7-5-5-5-5-|     A|-7-9-9-9-7-9-9-9-7-7-7-7-5-5-5-5-7----|
E|-5-7-7-7-5-7-7-7-----------------| x5  E|-5-7-7-7-5-7-7-7-----------------5----|

e|-----------7--------5-----------5--------5--|
B|-----------7--------5-----------5-----7--5--|
G|-9---------7--------5-----9-----6-----7--6--|
D|-9----9----7--7-----7-----9-----7-----7--7--|
A|-7----9-------7-----7-----7-----7-----7--7--|
E|------7-------5-----5-----------5-----5--5--| x2

e|-----------7--------5-----------5-----5----|
B|-----------7--------5-----------5-----5----|
G|-9---------7--------5-----9-----6-----6----|
D|-9----9----7--7-----7-----9-----7-----7----|
A|-7----9-------7-----7-----7-----7-----7----|
E|------7-------5-----5-----------5-----5----|

e|---------------------------------|     e|--------------------------------------|
B|---------------------------------|     B|--------------------------------------|
G|---------------------------------|     G|--------------------------------------|
D|-----------------9-9-9-9-7-7-7-7-|     D|-----------------9-9-9-9-7-7-7-7------|
A|-7-9-9-9-7-9-9-9-7-7-7-7-5-5-5-5-|     A|-7-9-9-9-7-9-9-9-7-7-7-7-5-5-5-5-7----|
E|-5-7-7-7-5-7-7-7-----------------| x6  E|-5-7-7-7-5-7-7-7-----------------5----|


| /  slide up
| \  slide down
| h  hammer-on
| p  pull-off
| ~  vibrato
| +  harmonic
| x  Mute note
===============================================================================
Tap to rate this tab
# A B C D E F G H I J K L M N O P Q R S T U V W X Y Z