Song name
# A B C D E F G H I J K L M N O P Q R S T U V W X Y Z

The Freeze - This Is Boston Not La tab

-------------------------------------------------------------------------------
This Is Boston Not L.A. - The Freeze
This Is Boston Not L.A.
-------------------------------------------------------------------------------
Tabbed by: axeslash
Email: holmzito@yahoo.com

Tuning:

e|-------------------------|
B|-------------------------|
G|---------7/6-6-6-6-6-6-6-|
D|-6-6-4-4-7/6-6-6-6-6-6-6-|
A|-6-6-4-4-5/4-4-4-4-4-4-4-|
E|-4-4-2-2-----------------| x8

e|------------------------------------------------------|
B|------------------------------------------------------|
G|-4-4-4-4-4-4-4-4------2-2-2-2-2-2-2-2-2-2-2-2-2-2-2-2-|
D|-4-4-4-4-4-4-4-4-4--2-2-2-2-2-2-2-2-2-2-2-2-2-2-2-2-2-|
A|-2-2-2-2-2-2-2-2-4--2-0-0-0-0-0-0-0-0-0-0-0-0-0-0-0-0-|
E|-----------------2--0---------------------------------| x3

e|-------------------------|
B|-------------------------|
G|-4-4-4-4-4-4-4-4------2--|
D|-4-4-4-4-4-4-4-4-4--2-2--|
A|-2-2-2-2-2-2-2-2-4--2-0--|
E|-----------------2--0----|


| /  slide up
| \  slide down
| h  hammer-on
| p  pull-off
| ~  vibrato
| +  harmonic
| x  Mute note
===============================================================================
Tap to rate this tab
 
# A B C D E F G H I J K L M N O P Q R S T U V W X Y Z