Song name
# A B C D E F G H I J K L M N O P Q R S T U V W X Y Z

The Freeze - Sacrifice Not Suicide tab

-------------------------------------------------------------------------------
Sacrifice Not Suicide - The Freeze
This Is Boston Not L.A.
-------------------------------------------------------------------------------
Tabbed by: axeslash
Email: holmzito@yahoo.com

Tuning: Standard

e|------------------------------------------------------------|
B|------------------------------------------------------------|
G|-11-11-11-11--------9-9-9-9-9-9-9-9-14-14-14-14-14-14-14-14-|
D|--9--9--9--9-11--9--7-7-7-7-7-7-7-7-12-12-12-12-12-12-12-12-|
A|--------------9--7------------------------------------------|
E|------------------------------------------------------------|

e|----------------------------------------------------------|
B|----------------------------------------------------------|
G|-11-11-11-11------9-9-9-9-9-9-9-9-14-14-14-14-14-14-14-14-|
D|--9--9--9--9-11-9-7-7-7-7-7-7-7-7-12-12-12-12-12-12-12-12-|
A|--------------9-7-----------------------------------------|
E|----------------------------------------------------------| x5

e|-----------------------------------------------------|
B|-----------------------------------------------------|
G|-11-11-11-11-11-11-11-13-14-14-14-14-9-9-9-9-9-9-9-9-|
D|--9--9--9--9--9--9--9-11-12-12-12-12-7-7-7-7-7-7-7-7-|
A|-----------------------------------------------------|
E|-----------------------------------------------------|

e|-------------------------------------------------|
B|-------------------------------------------------|
G|-11-11-11-11-11-11-11-13-14-14-14-14-9--9--9--9--|
D|--9--9--9--9--9--9--9-11-12-12-12-12-7--7--7--7--|
A|-------------------------------------------------|
E|-------------------------------------------------|

e|-----------------------------------------------------|
B|-----------------------------------------------------|
G|-11-11-11-11-11-11-11-13-14-14-14-14-9-9-9-9-9-9-9-9-|
D|--9--9--9--9--9--9--9-11-12-12-12-12-7-7-7-7-7-7-7-7-|
A|-----------------------------------------------------|
E|-----------------------------------------------------|

e|-----------------------------------------------------|
B|-----------------------------------------------------|
G|-11-11-11-11-11-11-11-13-14-14-14-14-9--9--9--9------|
D|--9--9--9--9--9--9--9-11-12-12-12-12-7--7--7--7------|
A|-----------------------------------------------------|
E|-----------------------------------------------------|

e|----------------------------------------------------------|
B|----------------------------------------------------------|
G|-11-11-11-11------9-9-9-9-9-9-9-9-14-14-14-14-14-14-14-14-|
D|--9--9--9--9-11-9-7-7-7-7-7-7-7-7-12-12-12-12-12-12-12-12-|
A|--------------9-7-----------------------------------------|
E|----------------------------------------------------------| x6

e|-----------------------------------------------------|
B|-----------------------------------------------------|
G|-11-11-11-11-11-11-11-13-14-14-14-14-9-9-9-9-9-9-9-9-|
D|--9--9--9--9--9--9--9-11-12-12-12-12-7-7-7-7-7-7-7-7-|
A|-----------------------------------------------------|
E|-----------------------------------------------------|

e|-------------------------------------------------|
B|-------------------------------------------------|
G|-11-11-11-11-11-11-11-13-14-14-14-14-9--9--9--9--|
D|--9--9--9--9--9--9--9-11-12-12-12-12-7--7--7--7--|
A|-------------------------------------------------|
E|-------------------------------------------------|

e|-----------------------------------------------------|
B|-----------------------------------------------------|
G|-11-11-11-11-11-11-11-13-14-14-14-14-9-9-9-9-9-9-9-9-|
D|--9--9--9--9--9--9--9-11-12-12-12-12-7-7-7-7-7-7-7-7-|
A|-----------------------------------------------------|
E|-----------------------------------------------------|

e|-----------------------------------------------------|
B|-----------------------------------------------------|
G|-11-11-11-11-11-11-11-13-14-14-14-14-9--9--9--9------|
D|--9--9--9--9--9--9--9-11-12-12-12-12-7--7--7--7------|
A|-----------------------------------------------------|
E|-----------------------------------------------------|


| /  slide up
| \  slide down
| h  hammer-on
| p  pull-off
| ~  vibrato
| +  harmonic
| x  Mute note
===============================================================================
Tap to rate this tab
# A B C D E F G H I J K L M N O P Q R S T U V W X Y Z